PrimaNota.ru - самый крупный в мире бесплатный архив песенных текстов, аккордов, табулатур и нот


Homeshake - Making A Fool Of You - таба, видео

Регистрация Запомнить меня
Войти через:  Facebook Google Twitter Vk Yandex Mail.ru

Homeshake - Making A Fool Of You - таба, видео

Печатать
Просмотров: 123
Уроки эстрадного вокала в Санкт-Петербурге
-------------------------------------------------------------------------------
                       MAKING A FOOL OF YOU - Homeshake
-------------------------------------------------------------------------------

Incredible band!
This is just the intro, but i've worked on the full song, maybe latter i can show to you.

EnjoY.


Guitar 1:

e|---------------------------------------------------------------------------|
B|---------------------------------------------------------------------------|
G|---5-5---8-9---10-10---5-5--------------------------------------------------|
D|---4-4---7-7---9--9----5-5--------------------------------------------------|
A|---5-5---9-9---10-10---7-7--------------------------------------------------|
E|---------------------------------------------------------------------------|

Guitar 2:

e|---------------------------------------------------------------------------|
B|-----------------------9~--------------------------------------------------|
G|---/9--12-9-12-9--12-9-----12-14b-12---------------------------------------|
D|-------------------------------------14--10--12/14-12/14--12---------------|
A|---------------------------------------------------------------------------|
E|---------------------------------------------------------------------------|

e|---------------------------------------------------------------------------|
B|---------------------12--9~------------------------------------------------|
G|---/9--12-9-12-9--12-------12-14b-12---------------------------------------|
D|-------------------------------------14--10--12/14-12/14--12---------------|
A|---------------------------------------------------------------------------|
E|---------------------------------------------------------------------------|


************************************

| /   slide up
| \   slide down
| h   hammer-on
| p   pull-off
| ~   vibrato
| +   harmonic
| x   Mute note
| b   Bend
| pb  Pre-bend
| br  Bend release
| pbr Pre-bend release
| brb Bend release bend

************************************
Добавлено: 14.10.2015
Другие материалы по этой песне:
  • Аккорды и текст

Страница создана 14.10.2015
http://primanota.ru/homeshake/making-a-fool-of-you-chords.htm
Привет, Гость.
Предлагаем пройти революционный курс по гитаре.
Подарок от PrimaNota.Ru, забирай!