PrimaNota.ru - самый крупный в мире бесплатный архив песенных текстов, аккордов, табулатур и нот


Homeshake - Khmlwugh - бас-таба, видео

Регистрация Запомнить меня
Войти через:  Facebook Google Twitter Vk Yandex Mail.ru

Homeshake - Khmlwugh - бас-таба, видео

Печатать
Просмотров: 147
Новый альбом группы 'Черный Кузнец' по культовому сериалу 'Сверхъестественное'!
-------------------------------------------------------------------------------
                             Khmlwugh - Homeshake
-------------------------------------------------------------------------------
Tabbed by: Noah Moody
E-mail: Noahmoody1228@gmail.com

Tuning: STANDARD


[Intro/Verse/Chorus]
[0:00-1:51]
G|------------------------------------------------------|
D|-5---5---------------------------------------3---3----|
A|---5---5---------5-------4--------3---3--------3---3--|
E|---------------5---5---5---5----3---3-----------------|

[1:51-1:56]
G|-----------------------------------------|
D|-5---5-----------------------------------|
A|---5---5---------5-------4--------3---3--|
E|---------------5---5---5---5----3---3----|


[Outro/Bridge]
[1:58-2:24]
G|--------------------------------------------|
D|-----7/12-------7/10-------7/12-------7/10--|
A|-5-7--------5-7--------5-7--------5-7-------|
E|--------------------------------------------|
                                            
G|------------------------------------------|
D|-----5/10-------5/8-------5/10-------5/8--|
A|-3-5--------3-5-------3-5--------3-5------|
E|------------------------------------------|

G|--------------------------------------------|
D|-----7/12-------7/10-------7/12-------7/10--|
A|-5-7--------5-7--------5-7--------5-7-------|
E|--------------------------------------------|
                                            
G|------------------------------------------|
D|-----5/10-------5/8-------5/10-------5/8--|
A|-3-5--------3-5-------3-5--------3-5------|
E|------------------------------------------|

[2:24-2:36]
G|------------------------------------------------------|
D|-5---5---------------------------------------3---3----|
A|---5---5---------5-------4--------3---3--------3---3--|
E|---------------5---5---5---5----3---3-----------------|

G|------------------------------------------------|
D|-5---5------------------------------------------|
A|---5---5---------5-------4--------3---3------3--|
E|---------------5---5---5---5----3---3-----------|


************************************
Добавлено: 15.02.2018
Другие материалы по этой песне:
  • Аккорды и текст

Страница создана 15.02.2018
http://primanota.ru/homeshake/khmlwugh-chords.htm
Привет, Гость.
Предлагаем пройти революционный курс по гитаре.
Подарок от PrimaNota.Ru, забирай!