PrimaNota.ru - самый крупный в мире бесплатный архив песенных текстов, аккордов, табулатур и нот


Homeshake - Getting Down - таба, видео

Регистрация Запомнить меня
Войти через:  Facebook Google Twitter Vk Yandex Mail.ru

Homeshake - Getting Down - таба, видео

Печатать
Просмотров: 109
Уроки эстрадного вокала в Санкт-Петербурге
"DIE!!!"
First tab I made on the 6 string. Feel free to correct me.


Rhythm Guitar



Verse

e ----------------
B ------------0----
G -----------4-----
D ----------------
A ----------------
E ----------------


Chorus
Am7 Bbm7 Bm7 
e 5-5-6-9-------------
B 5-5-6-9-------------
G 5-5-6-9-------------
D 5-5-6-9------------
A 7-7-8-9-------------
E 5-5-6-7-------------


Lead Guitar

Verse
e -----------------
B -----------------
G -----------------
D ----------4------
A 5h7--5--3--------
E -----------------


 1st Time
e --5-----5-----5-----5-----5------
B ----5-----5-----5-----5-----5----
G 5-----5-----5-----5-----5-----5--
D ---------------------------------
A ---------------------------------
E ----------------------------------

 2nd
e --5-----5-----5-----5-----5h7p5-------
B ----5-----5-----5-----5---------5-----
G 5-----5-----5-----5-----5---------5---
D --------------------------------------
A --------------------------------------
E --------------------------------------

3rd (After Chorus)
e --5-----5-----5-----5h7p5-----5------
B ----5-----5-----5---------5-----5----
G 5-----5-----5-----5---------5-----5--
D -------------------------------------
A -------------------------------------
E -------------------------------------

4th
e --5-----5-----5h7p5-----5----5h7p5-----
B ----5-----5---------5-----5--------5---
G 5-----5-----5---------5-----5--------5-
D ---------------------------------------
A ---------------------------------------
E ---------------------------------------

Chorus
e ----------10------12s14-12-10------(17)
B 10~-11-12----12-10---------------(17)--
G ---------------------------------------
D ---------------------------------------
A ---------------------------------------
E ---------------------------------------



Bass

Verse


G ------------------
D ------------------
A ----0-2-----------
E 0-3---------------

G -------------------
D -------------------
A -------------------
E 7-5---5---7-5---5--


Chorus



G -------------------------
D -------------------------
A --------5----------------
E 5-5-6-7----5-5--5-5------






Добавлено: 04.06.2016
Другие материалы по этой песне:
  • Аккорды и текст

Страница создана 04.06.2016
http://primanota.ru/homeshake/getting-down-chords.htm
Привет, Гость.
Предлагаем пройти революционный курс по гитаре.
Подарок от PrimaNota.Ru, забирай!