PrimaNota.ru - самый крупный в мире бесплатный архив песенных текстов, аккордов, табулатур и нот


Homeshake - Every Single Thing - бас-таба, видео

Регистрация Запомнить меня
Войти через:  Facebook Google Twitter Vk Yandex Mail.ru

Homeshake - Every Single Thing - бас-таба, видео

Печатать
Просмотров: 102
Новый альбом группы 'Черный Кузнец' по культовому сериалу 'Сверхъестественное'!
[Intro] Start at 0:23
                                                                    
G|----------------|---------------|---------------|--------------------------|
D|----------------|-----3--6---4--|---------------|--------------------------|
A|----5----7---5--|---5-----------|---2----4---8--|--9-11-12-11-9------------|
E|------5---------|---------------|-----2---------|---------------9---7------|
                                                                           
G|----------------|---------------|---------------|--------------------------|
D|----------------|-----3--6---4--|---------------|--------------------------|
A|----5----7---5--|---5-----------|---2----4---8--|--9-11-12-11-9------------|
E|------5---------|---------------|-----2---------|---------------9----------|

[Verse: 0:47 /Chorus 1:27 /Outro: 2:12] 

G|----------------|--------------|----------------------|
D|-------3--6---4-|--------------|----------------------|
A|----5-----------|--2----4---8--|--9-11-12-11-9--------|
E|----------------|----2---------|---------------9---7--|
                                                                            X2
G|----------------|---------------|---------------|--------------------------|
D|----------------|-----3--6---4--|---------------|--------------------------|
A|----5----7---5--|---5-----------|---2----4---8--|--9-11-12-11-9------------|
E|------5---------|---------------|-----2---------|---------------9---7------|
                                                                         
G|----------------|---------------|---------------|--------------------------|
D|----------------|-----3--6---4--|---------------|--------------------------|
A|----5----7---5--|---5-----------|---2----4---8--|--9-11-12-11-9------------|
E|------5---------|---------------|-----2---------|---------------9----------|

************************************
Добавлено: 15.02.2018
Другие материалы по этой песне:
  • Аккорды и текст

Страница создана 15.02.2018
http://primanota.ru/homeshake/every-single-thing-chords.htm
Привет, Гость.
Предлагаем пройти революционный курс по гитаре.
Подарок от PrimaNota.Ru, забирай!