PrimaNota.ru - самый крупный в мире бесплатный архив песенных текстов, аккордов, табулатур и нот


Homeshake - Doo Dah - таба, видео

Регистрация Запомнить меня
Войти через:  Facebook Google Twitter Vk Yandex Mail.ru

Homeshake - Doo Dah - таба, видео

Печатать
Просмотров: 87
Уроки эстрадного вокала в Санкт-Петербурге
*I didn't tab how many times you strum each chord. Figure it out by listening to the song*

-------------------------------------------------------------------------------
                             Doo Dah - Homeshake
-------------------------------------------------------------------------------
Tabbed by: Ron Hambone


Tuning: Standard

e|----0-----0---0----|
B|----5-----3---1----|
G|----4-----2---2----| Repeat 2x
D|----5-----3---3----|
A|-------------------|
E|-------------------|

e|---15----------15----15------------15----17----------17----15------------15-13----------13-12------------|
B|------17-15-17----17----17-15-17------17----17-15-17----17----17-15-17---------13-12-13-------12-10-12---|
G|---------------------------------------------------------------------------------------------------------|
D|---------------------------------------------------------------------------------------------------------|
A|---------------------------------------------------------------------------------------------------------|
E|---------------------------------------------------------------------------------------------------------|

e|----0-----0---0----|
B|----5-----3---1----|
G|----4-----2---2----| Repeat 2x
D|----5-----3---3----|
A|-------------------|
E|-------------------|

e|---15----------15----15------------15----17----------17----15------------15-13----------13-12----------12---|
B|------17-15-17----17----17-15-17------17----17-15-17----17----17-15-17---------13-12-13-------12-10-12------|
G|------------------------------------------------------------------------------------------------------------|
D|------------------------------------------------------------------------------------------------------------|
A|------------------------------------------------------------------------------------------------------------|
E|------------------------------------------------------------------------------------------------------------|

e|15----------15----15------------15-15----17----------17----15------------15b16br15-13----------13-12---------|
B|---17-15-17----17----17-15-17---------17----17-15-17----17----17-15-17----------------13-12-13-------12-10-12|
G|-------------------------------------------------------------------------------------------------------------|
D|-------------------------------------------------------------------------------------------------------------|
A|-------------------------------------------------------------------------------------------------------------|
E|-------------------------------------------------------------------------------------------------------------|

e|----0-----0----|
B|----5-----7----|
G|----4-----5----| 
D|----5-----7----|
A|---------------|
E|---------------|



************************************

| /   slide up
| \   slide down
| h   hammer-on
| p   pull-off
| ~   vibrato
| +   harmonic
| x   Mute note
| b   Bend
| pb  Pre-bend
| br  Bend release
| pbr Pre-bend release
| brb Bend release bend

************************************
Добавлено: 14.10.2015
Другие материалы по этой песне:
  • Аккорды и текст

Страница создана 14.10.2015
http://primanota.ru/homeshake/doo-dah-chords.htm
Привет, Гость.
Предлагаем пройти революционный курс по гитаре.
Подарок от PrimaNota.Ru, забирай!