PrimaNota.ru - самый крупный в мире бесплатный архив песенных текстов, аккордов, табулатур и нот


Homeshake - Chowder - таба, видео

Регистрация Запомнить меня
Войти через:  Facebook Google Twitter Vk Yandex Mail.ru

Homeshake - Chowder - таба, видео

Печатать
Просмотров: 57
Уроки эстрадного вокала в Санкт-Петербурге
-------------------------------------------------------------------------------
                             Chowder - Homeshake
-------------------------------------------------------------------------------
Tabbed by: Ron Hambone

Tuning: Standard


Intro:
e|---18\17---|
B|-----------|
G|-----------|
D|-----------|
A|-----------|
E|-----------|

Verse Chords:
e|---0-----------|
B|---5---0---2---|
G|---4---4---4---|
D|---5---5---5---|
A|---------------|
E|---------------|

Chorus:
e|-----------------------6-7-6-7-------------------------------|
B|---7-----7-----7-----------------7-----7-----7-------8---6---|
G|-----7-7---7-7---7-4-7-------------7-7---7-7---7-4-7---7-----|
D|-------------------------------------------------------------|
A|-------------------------------------------------------------|
E|-------------------------------------------------------------|

e|-----------------------6-7-6-7------------------------------------|
B|---7-----7-----7-----------------7-----7-----7-------8---6---5\---|
G|-----7-7---7-7---7-4-7-------------7-7---7-7---7-4-7---7---7------|
D|------------------------------------------------------------------|
A|------------------------------------------------------------------|
E|------------------------------------------------------------------|

Verse Chords:
e|---0-----------|
B|---5---0---2---|
G|---4---4---4---|
D|---5---5---5---|
A|---------------|
E|---------------|

Chorus:
e|-----------------------6-7-6-7-------------------------------|
B|---7-----7-----7-----------------7-----7-----7-------8---6---|
G|-----7-7---7-7---7-4-7-------------7-7---7-7---7-4-7---7-----|
D|-------------------------------------------------------------|
A|-------------------------------------------------------------|
E|-------------------------------------------------------------|

e|-----------------------6-7-6-7------------------------------------|
B|---7-----7-----7-----------------7-----7-----7-------8---6---5\---|
G|-----7-7---7-7---7-4-7-------------7-7---7-7---7-4-7---7---7------|
D|------------------------------------------------------------------|
A|------------------------------------------------------------------|
E|------------------------------------------------------------------|



************************************

| /   slide up
| \   slide down
| h   hammer-on
| p   pull-off
| ~   vibrato
| +   harmonic
| x   Mute note
| b   Bend
| pb  Pre-bend
| br  Bend release
| pbr Pre-bend release
| brb Bend release bend

************************************
Добавлено: 04.06.2016
Другие материалы по этой песне:
  • Аккорды и текст

Страница создана 04.06.2016
http://primanota.ru/homeshake/chowder-chords.htm
Привет, Гость.
Предлагаем пройти революционный курс по гитаре.
Подарок от PrimaNota.Ru, забирай!