PrimaNota.ru - самый крупный в мире бесплатный архив песенных текстов, аккордов, табулатур и нот


Home Service - The Lost Lady Found - таба, видео

Регистрация Запомнить меня
Войти через:  Facebook Google Twitter Vk Yandex Mail.ru

Home Service - The Lost Lady Found - таба, видео

Печатать
Просмотров: 75
Уроки эстрадного вокала в Санкт-Петербурге
Home Service: A Lincolnshere Posy (part f: The Lost Lady Found)
(Trad. Arr. Percy Grainger)
Chords by Patrick O'Shaughnessy
Tabulature by Jonas Juul (jonasjuul@hotmail.com)
Based on notes by Patrick O'Shaughnessy
Corrected by Jonas Juul

>From "The Graeme Taylor Appreciation Page"
http://www.geocities.com/gtaylorpage

This is the brass main riff, which I have transcribed for guitar since it is 
possible to play with good results.
The / means that you have to slide or slip the note without stroking the 
string again.
This is for to match Roger Williams' sliding trombone.

    Dm    Am    F     Am  Dm          Am    Dm        Am    Dm
e ----------------------------------------------------------------------
B --------------------------------------------1/0---------------3-----0-
G --------------2-2/0-----------------------2-----2/0-2---0-2-2---2-2---
D 2-0-0-2-----0-------2/3-0---2-0-0-2-----0-----------------------------
A --------3-3-------------------------3-3-------------------------------
E ----------------------------------------------------------------------

  G     Dm          Am    F     Am  Dm
e -----------------------------------
B -----------------------------------
G 000---------------------2-2/0------
D ----2-0---2-0-0-2-----0-------2/3-0
A ------------------3-3--------------
E -----------------------------------
     
Добавлено: 08.12.2013
Вам также может быть интересно:
Другие материалы по этой песне:
  • Аккорды и текст

Страница создана 08.12.2013
http://primanota.ru/home-service/the-lost-lady-found-chords.htm
Привет, Гость.
Предлагаем пройти революционный курс по гитаре.
Подарок от PrimaNota.Ru, забирай!