PrimaNota.ru - самый крупный в мире бесплатный архив песенных текстов, аккордов, табулатур и нот


Home Made Kazoku - Shounen Heart - бас-таба, видео

Регистрация Запомнить меня
Войти через:  Facebook Google Twitter Vk Yandex Mail.ru

Home Made Kazoku - Shounen Heart - бас-таба, видео

Печатать
Просмотров: 143
Уроки эстрадного вокала в Санкт-Петербурге
-------------------------------------------------------------------------------
			     Shounen Heart - Home Made Kazoku
-------------------------------------------------------------------------------

Tabbed By : Coday
e-mail: dorthysmash@gmail.com

Tuning: Standard

Main Riff (just repeats throughout whole song):
G|--------------------------------------|
D|--------------------------------------|
A|-6-6-6-4h6---6-7-8--6p5-------2h4p2h4-|
E|-------------------------4h6----------|

Bridge (right before it returns to chorus):
G|--------------------------------------|
D|--------------------------------------|
A|-6-6-6-4h6---6-7-8--8---------2h4p2h4-|
E|-------------------------4h6----------|

Change up (where the it is just drums and bass comes in breifly):
G|--------------------------------------|
D|--------------------------------------|
A|--0/4-2h4p2h4-------------------------|
E|--------------------------------------|

This is my first tab, let me know what you think.  I think it is pretty accurate, but 
free to let me know of corrections.  I watch a lot of anime and that bass riff was bugging 
 If anyone has other J-Pop/anime stuff tabbed for bass, send it my way.
Добавлено: 24.06.2012
Вам также может быть интересно:
Другие материалы по этой песне:
  • Аккорды и текст

Страница создана 24.06.2012
http://primanota.ru/home-made-kazoku/shounen-heart-chords.htm
Привет, Гость.
Предлагаем пройти революционный курс по гитаре.
Подарок от PrimaNota.Ru, забирай!