PrimaNota.ru - самый крупный в мире бесплатный архив песенных текстов, аккордов, табулатур и нот


Home Grown - Wow, She Dumb - текст песни, таба, видео

Регистрация Запомнить меня
Войти через:  Facebook Google Twitter Vk Yandex Mail.ru

Home Grown - Wow, She Dumb - текст песни, таба, видео

Печатать
Просмотров: 50
Opening Riff:
                Pm.....
1-------------------------|
2-------------------------|
3---4---6---4--6--------4-|
4-4-4-4-6-4-4--6--------4-|
5-4-2-4-4-4-2--4--------2-|
6-2---2---2---------------|

1st guitar                                   2nd guitar

1---------------------------------------------------|
2---------------------------------------------------|
3---3-3-4-3---3-3-4-3--------------4-4-6-4----8-6-4-|
4-4---------1------------6-6-8-6-4----------4-8-6-4-|
5----------------------4--------------------4-6-4-2-|
6-------------------------------------------2-------|

Fill:           Verse:   Conceded immature....

1----------------------------------|
2----------------------------------|
3-11-12-13-16------6-4---------6-4-|
4----------------4-6-4---4-3-4-6-4-|
5-9--10-11-14----4-4-2---4-3-4-4-2-|
6----------------2-------2-1-2-----|

And I wasted.... I am sick of stupid....
                              2nd guitar..
1-----------------------------------------|
2-----------------------------------------|
3-6-4-6-4-------4-6-4---4-6--10-11-13-10--|
4-6-4-6-4-----4-4-6-4-4-4-6---------------|
5-4-2-4-2-----4-2-4-2-4-2-4--8--9--11-8---|
6-------------2-------2-------------------|

whoa yeah.....
                   2nd guitar at parts
1--------------------|
2------------------7-|
3-4---6--------------|
4-4-4-6-pic scrape-4-|
5-2-4-4--------------|
6---2----------------|

your just a stupid girl to me....
                                blech....
1-------------------------------------------|
2-------------------------------------------|
3-6-4-3-------3-4-------------------4-3-----|
4-6-4-3-6-4-6-3-4-------------------4-3-6-4-|
5-4-2-1-6-4-6-1-2-------------------2-1-6-4-|
6-------4-2-4---------------------------4-2-|
Добавлено: 15.05.2016
Другие материалы по этой песне:
  • Аккорды и текст

Страница создана 01.05.2012
http://primanota.ru/home-grown/wow-she-dumb-chords.htm
Привет, Гость.
Предлагаем пройти революционный курс по гитаре.
Подарок от PrimaNota.Ru, забирай!