PrimaNota.ru - самый крупный в мире бесплатный архив песенных текстов, аккордов, табулатур и нот


Home Grown - Why Wont You Leave Me - текст песни, таба, видео

Регистрация Запомнить меня
Войти через:  Facebook Google Twitter Vk Yandex Mail.ru

Home Grown - Why Wont You Leave Me - текст песни, таба, видео

Печатать
Просмотров: 113
Intro

E|--8--8--8---6-6-6--4-4-4-3-4-4-4-4-3--6-6-6-6-4-6---------|
A|--10-10-10--8-8-8--6-6-6-6-6-6-6-6----8-8-8-8-6-8---------|
D|--10-10-10--8-8-8--6-6-6-6-6-6-6-6----8-8-8-8-6-8---------|
G|----------------------------------------------------------|
B|----------------------------------------------------------|
e|----------------------------------------------------------|

E|--8--8--8---6-6-6--4-4-4-3-4-4-4-4-3--6-6-6-6-------------|
A|--10-10-10--8-8-8--6-6-6-6-6-6-6-6----8-8-8-8-------------|
D|--10-10-10--8-8-8--6-6-6-6-6-6-6-6----8-8-8-8-------------|
G|----------------------------------------------------------|
B|----------------------------------------------------------|
e|----------------------------------------------------------|x2

Guitar 1

E|----------------------------------------------------------|
A|----------------------------------------------------------|
D|----------------------------------------------------------|
G|-12-10-8-7-8-7-----12-10-8-7-8-10-------------------------|
B|----------------------------------------------------------|
e|----------------------------------------------------------|

Guitar 2

E|--8--8--8---6-6-6--4-4-4-3-4-4-4-4-3--6-6-6-6-4-6---------|
A|--10-10-10--8-8-8--6-6-6-6-6-6-6-6----8-8-8-8-6-8---------|
D|--10-10-10--8-8-8--6-6-6-6-6-6-6-6----8-8-8-8-6-8---------|
G|----------------------------------------------------------|
B|----------------------------------------------------------|
e|----------------------------------------------------------|

E|--8--8--8---6-6-6--4-4-4-3-4-4-4-4-3--6-6-6-6-3-----------|
A|--10-10-10--8-8-8--6-6-6-6-6-6-6-6----8-8-8-8-5-----------|
D|--10-10-10--8-8-8--6-6-6-6-6-6-6-6----8-8-8-8-5-----------|
G|----------------------------------------------------------|
B|----------------------------------------------------------|
e|----------------------------------------------------------|

Verse

E|-33333333333333333-4444444-6666666------------------------|
A|-55555555555555555-6666666-8888888------------------------|
D|-55555555555555555-6666666-8888888------------------------|
G|----------------------------------------------------------|
B|----------------------------------------------------------|
e|----------------------------------------------------------| x2


E|----------------------------------------------------------|
A|----------------------------------------------------------|
D|----------------------------------------------------------|
G|12-12-13-13-12-12-10-10---12-12-13-13-10-10-8-8-----------|
B|----------------------------------------------------------|
e|----------------------------------------------------------|
                                       
E|---------------------------666666666----------------------|
A|---------------------------888888888----------------------|
D|---------------------------888888888----------------------|
G|-12-12-13-13-12-12-10-10----------------------------------|
B|----------------------------------------------------------|
e|----------------------------------------------------------|

Chorus

E|-33xxxx-66xxxx-44xxxxx------------------------------------|
A|-55xxxx-88xxxx-66xxxxx-3333-1111--------------------------|
D|-55xxxx-88xxxx-66xxxxx-5555-3333--------------------------|
G|-----------------------5555-3333--------------------------|
B|----------------------------------------------------------|
e|----------------------------------------------------------|x4

Bridge

E|-8-8-8-8-8-8-8-8-8-8-8-8-8-8-8-8---666666666666666--------|
A|-10101010101010101010101010101010--888888888888888--------|
D|----------------------------------------------------------|
G|----------------------------------------------------------|
B|----------------------------------------------------------|
e|----------------------------------------------------------|

E|4444444444444444--3333333-66666666------------------------|
A|6666666666666666--5555555-88888888------------------------|
D|----------------------------------------------------------|
G|----------------------------------------------------------|
B|----------------------------------------------------------|
e|----------------------------------------------------------|x2

Outro


E|----------------------------------------------------------|
A|----------------------------------------------------------|
D|----------------------------------------------------------|
G|12-10-8-7-8-7-5---12-10-8-7-8-7--15-13-12-13-12-13--------|
B|----------------------------------------------------------|
e|----------------------------------------------------------|x2

After Chorus
                              p.m................
E|-----------------------------8-8-8--666-4444-3-4-44444-3-66666-4--3-----|
A|-----------------------------101010-888-6666---6-66666---88888-6--5-----|
D|-----------------------------101010-888-6666---6-66666---88888-6--5-----|
G|------------------------------------------------------------------------|
B|------------------------------------------------------------------------|
E|-12-12-12-10-10-10-8-8-8-7-8--------------------------------------------|
Добавлено: 27.03.2012
Другие материалы по этой песне:

Страница создана 13.03.2012
http://primanota.ru/home-grown/why-wont-you-leave-me-chords.htm
Привет, Гость.
Предлагаем пройти революционный курс по гитаре.
Подарок от PrimaNota.Ru, забирай!