PrimaNota.ru - самый крупный в мире бесплатный архив песенных текстов, аккордов, табулатур и нот


Home Grown - We Are Dumb - текст песни, бас-таба, видео

Регистрация Запомнить меня
Войти через:  Facebook Google Twitter Vk Yandex Mail.ru

Home Grown - We Are Dumb - текст песни, бас-таба, видео

Печатать
Просмотров: 113
We Are Dumb

TABBED BY: bRUCE
THIS BASS LINE KICKS ASS BUT IT MIGHT BE KINDA HARD BECAUSE YOU KINDA
HAVE TO PLAY IT FAST.

/ = SLIDE UP   h = hammer

INTRO:
G-|--------------------------------------------------9-9--------|
D-|-----------------6-6-9--------------------------------6-6-9--|
A-|------6-6-9--7-7-----------6-6-9-----------6-6-9-------------|
E-|--7-7------------------7-7--------5--6-7-7-------------------|

G-|-------------------------| p
D-|-------------------------|  l   3 times
A-|------4-4-5--7-7-5-5-4---|   a
E-|--5-5--------------------|    y

PRE-VERSE:
G-|------------------------| p
D-|------9-7---------------|  l  3 times
A-|----------9-8-0-4-5-0---|   a
E-|--5/7-------------------|    y

G-|---------------9--|
D-|------7-----------|
A-|------------7-----|
E-|--5-5---5-0-------|

VERSE:
G-|--------------------------------------------|
D-|------9-7------------------9-7--------------|
A-|----------9-8-0-4-5-0--5/7-----9-8-0-4-5-0--|
E-|--5/7---------------------------------------|

                                    this part goes real fast
G-|-------------------------------9-7--------------|
D-|------9-7------------------7-9-----9-8-7--------|
A-|----------9-8-0-4-5-0--5/7---------------9-8-7--|
E-|--0h5-------------------------------------------|

CHORUS:
G-|---------------------------|
D-|---------------------------|
A-|--------------------7-7-7--|
E-|--7--7--7-7-7-5-5-5--------|

BRIDGE:
"we're so naive..."
G-|------------------------------------------------------|
D-|------------------------------------------------------|
A-|---------------------------7--7--7-7-7----------------|
E-|--2--2--2-2-2-5--5-5--5-5-5------------7--7-7--7-7-7--|

G-|-------------------------------------------------------| p
D-|-------------------------------------------------------|  l  3 times
A-|---------------------------7--7--7-7-7-7--7-7--7-7-7---|   a
E-|--2--2--2-2-2-5--5-5--5-5-5----------------------------|    y

ENDING:
G-|------------------|
D-|------------------|
A-|-------7--5-------|
E-|--5--7------5--7--|

"hey that was hard..."
Добавлено: 02.03.2012
Другие материалы по этой песне:
  • Аккорды и текст

Страница создана 02.03.2012
http://primanota.ru/home-grown/we-are-dumb-chords.htm
Привет, Гость.
Предлагаем пройти революционный курс по гитаре.
Подарок от PrimaNota.Ru, забирай!