PrimaNota.ru - самый крупный в мире бесплатный архив песенных текстов, аккордов, табулатур и нот


Home Grown - U Bother Me - текст песни, бас-таба, видео

Регистрация Запомнить меня
Войти через:  Facebook Google Twitter Vk Yandex Mail.ru

Home Grown - U Bother Me - текст песни, бас-таба, видео

Печатать
Просмотров: 118
U Bother Me

Tabbed by: bRUCE
This is the key parts. You'll have to listen to the CD for the changes.

INTRO:
first part:
G-|-----------------------------|
D-|-----------------------------|
A-|-----------------------------|
E-|-----7-----5-----4-----5-----|

second part:
G-|-----------------------------------------------------|
D-|-----------------------------------------------------|
A-|-----------------------6--7--------------------------|
E-|--7--7--7-7-7-7--4--5--------7--7--7-7-7-7--4--5--2--|

VERSE:
G-|----------------------------------------------------| P
D-|--------------------------------6--9-----11--9--8---|  L   3 TIMES
A-|--------6--9--------6--9--7--7--------9-------------|   A
E-|--7--7--------7--7----------------------------------|    Y

G-|-------------------------------------------------------------|
D-|--------------------------------6--9-------------------------|
A-|--------6--9--------6--9--7--7-------------------------------|
E-|--7--7--------7--7--------------------2--2--2--2--2--2--2--2-|

G-|--------------------------|
D-|--------------------------|
A-|--9--9--9--9--9--7--6-----|
E-|-----------------------9--|

PRE-CHORUS:
G-|------------------------------------------------------------------|
D-|------------------------------------------------------------------|
A-|--7--7-7--4--4-4--7--7-7--4--4-4--7--7-7--4--4-4--7--7-7--9--9-9--|
E-|------------------------------------------------------------------|

CHORUS:
G-|-----------------------------------| P
D-|-----------------------------------|  L   4 TIMES
A-|--2--2-2---------------------------|   A
E-|----------2--2-2--0--0-0--0--0-0---|    Y

BRIDGE:
G-|---------------| P
D-|---------------|  L  3 TIMES
A-|--0--4--0--2---|   A
E-|---------------|    Y

G-|--------------------------------------|
D-|--------------------------------------|
A-|--0--4--0--2--2-2-2-2-2-2-2-2-2-2-2-2-|
E-|--------------------------------------|

G-|---------------------------------------| P   I DON'T KNOW
D-|-----------------------4---------------|  L    HOW MANY TIMES
A-|--0--4--0--2--2--0--2------------------|   A
E-|--------------------------3--2--0--2---|    Y

ENDING
G-|--------------------------------------|
D-|--------------------------------------|
A-|--0--4--0--2--LET RING TILL END-------|
E-|--------------------------------------|
Добавлено: 14.06.2012
Другие материалы по этой песне:
  • Аккорды и текст

Страница создана 05.06.2012
http://primanota.ru/home-grown/u-bother-me-chords.htm
Привет, Гость.
Предлагаем пройти революционный курс по гитаре.
Подарок от PrimaNota.Ru, забирай!