PrimaNota.ru - самый крупный в мире бесплатный архив песенных текстов, аккордов, табулатур и нот


Home Grown - Shes Anti - текст песни, бас-таба, видео

Регистрация Запомнить меня
Войти через:  Facebook Google Twitter Vk Yandex Mail.ru

Home Grown - Shes Anti - текст песни, бас-таба, видео

Печатать
Просмотров: 117
Уроки эстрадного вокала в Санкт-Петербурге
She's Anti
Tabbed by: Mike Lasse

tuned half step

intro:                             b
--------------------------------------|
--2-2h4--------------2-2h4-------2----|
--------2------------------2-------3--|
----------4-5-4-2-4----------4-5------|

-------------------------------------|
--2-2h4------------------------------|
--------2-------------------------2--|
----------4-5-4-2-4--55-44-22-44-----|

verse:
"sitting in her class"
-----------------------|
-----------------------|
-----------------0-----|
-0---------------------|

"sophisticated anti social brat"
------------------------------------|
------------------------------------|
---------------2--------------------|
-0-------------------------0--------|

"she never speaks a word"
---------------------------|
---------------------------|
--------------------0------|
-(0)-----------------------|

"that's why she's sitting in the back"
---------------------------------|
--------------------------2h4----|
------------------2-2-2-2-----2--|
-0-------------------------------|

"no one knows her name"
-----------------------------------|
-----------------------------------|
------------------0-0-0-0-0-0-0-0--|
-0-0-0-0-0-0-0-0-------------------|

"i never knew that she existed"
------------------------------------|
------------------------------------|
-------------------2-2-2-2-2-2-2-2--|
-0-0-0-0-0-0-0-0--------------------|

"then one tragic day"
-----------------------------------|
-----------------------------------|
------------------0-0-0-0-0-0-0-0--|
-0-0-0-0-0-0-0-0-------------------|

"she came to school and went ballistic"
---------------------------------|
--------------------------2h4----|
------------------2-2-2-2-----2--|
-0-0-0-0-0-0-0-0-----------------|

prechorus:

----------------------------------|
----------------------------------|
----------------------------------|
-5-5-5-5-5-5-5-5-5-5-5-5-5-5-5-5--|

----------------------------------|
-2-2-2-2-2-2-2h4------------------|
-----------------2-2-2-2-2-2-2-2--|
----------------------------------|

"they're all dead" part
------------------------------------------------------|
------------------------------------------------------|
-------4----------------4----------------4------------|
-5-5-5---7-7-7-7--5-5-5---7-7-7-7--5-5-5---7-7-7-7-7--|

intro
play verse with other lyrics same rhythm as first verse
prechorus
"they're all dead" part

chorus:                           b
-------------------------------------|
-2-2h4--------------2-2h4-------2----|
-------2------------------2-------3--|
---------4-5-4-2-4----------4-5------|

--------------------------------------------|
-2-2h4--------------------------------------|
-------2------------------------------------|
---------4-5-4-2-4--55-44-22-44-77-55-44-7--|
repeat chorus once

bridge:(something like this, although not quite sure,
        and don't really care bout this part too much)
-----------------------------------|
---------------------99------------|
-44-66-77-99-7-7--------99-77-6-6--|
------------------77---------------|

--------------------------------------|
--------------------------------------|
-44-66-77-99-9-9--10-10-99-77-66-6-6--|
--------------------------------------|

-----------------------------------|
---------------------99-77-66------|
-44-66-77-99-7-7--------------9-7--|
------------------77---------------|

play the "they're all dead part"

chorus play normal once but don't repeat
then play this instead of repeating:

----------------------------------|
-2-2-2-2--------------------------|
---------2-2-2-2-0-0-0-0-2-2-2-2--|
----------------------------------|

----------------------------------|
-2-2-2-2--------------------------|
---------2-2-2-2-0-0-0-0-3-3-3-3--|
----------------------------------|

----------------------------------|
-2-2-2-2--------------------------|
---------2-2-2-2-0-0-0-0-2-2-2-2--|
----------------------------------|

-------------------------|
-------------------------|
-------------------------|
-55-44-22-44-77-55-44-7--|

ending:
-----------------|
-----------------|
-4-6---------7\--|
-----0-2-3-------|
Добавлено: 24.05.2012
Другие материалы по этой песне:
  • Аккорды и текст

Страница создана 20.03.2012
http://primanota.ru/home-grown/shes-anti-chords.htm
Привет, Гость.
Предлагаем пройти революционный курс по гитаре.
Подарок от PrimaNota.Ru, забирай!