PrimaNota.ru - самый крупный в мире бесплатный архив песенных текстов, аккордов, табулатур и нот


Home Grown - Promise Breaker - таба, видео

Регистрация Запомнить меня
Войти через:  Facebook Google Twitter Vk Yandex Mail.ru

Home Grown - Promise Breaker - таба, видео

Печатать
Просмотров: 119
Уроки эстрадного вокала в Санкт-Петербурге
-------------------------------------------------------------------------------
			     Promise Breaker - Homegrown
-------------------------------------------------------------------------------

Tabbed by: Kevin (ibanez707@hotmail.com)


Tuned down half a step

Intro
e|--2---4---0---0-------2---4---0--------------------------------------------|
B|--2---4---0-----0-----2---4---0--------------------------------------------|
G|--3---4---1-------1---3---4---1--------------------------------------------|
D|--4---6---2-----------4---6---2--------------------------------------------|
A|--4---6---2-----------4---6---2--------------------------------------------|
E|--2---4---0-----------2---4---0--------------------------------------------|

Interlude
e|--------------------------0------------------------------------------------|
B|----------------------------0----------------------------------------------|
G|----4--4---3h4p3----3-4-6-----3--------------------------------------------|
D|----4--4----------4----------------7-7-7-7-7-7--2-2-2-2-2-2----------------|
A|----2--2---------------------------7-7-7-7-7-7--2-2-2-2-2-2----------------|
E|-----------------------------------5-5-5-5-5-5--0-0-0-0-0-0----------------|

e|---------------------------0-----------------------------------------------|
B|-----------------------------0---------------------------------------------|
G|-----4--4---3h4p3----3-4-6-----3-------------------------------------------|
D|-----4--4----------4----------------7-7-7-7-7-7--2-2-2-2-2-2---------------|
A|--2--2--2---------------------------7-7-7-7-7-7--2-2-2-2-2-2---------------|
E|------------------------------------5-5-5-5-5-5--0-0-0-0-0-0---------------|

Verse 1
e|---------------------------------------------------------------------------|
B|---------------------------------------------------------------------------|
G|---4-----------4-----------------------------------------------------------|
D|---4---7---2---4---7---2---------------------------------------------------|
A|---2---7---2---2---7---2---------------------------------------------------|
E|-------5---0-------5---0---------------------------------------------------|

Chorus
e|---------------------------------------------------------------------------|
B|---------------------------------------------------------------------------|
G|----------9--8------------9--8------------9--8-----9--8-----9-11-----------|
D|---4--4------------6--6------------2--2------------------------------------|
A|---4--4---7--6-----6--6---7--6-----2--2---7--6-----7--6-----7--9-----------|
E|---2--2---------0--4--4---------0--0--0---------0--------0-----------------|

e|---------------------------------------------------------------------------|
B|---------------------------------------------------------------------------|
G|------------9--8------------9--8-----------------------13-13-13-14-14-14---|
D|-----4--4------------6--6------------2--2--2--2--2--2----------------------|
A|-----4--4---7--6-----6--6---7--6-----2--2--2--2--2--2--11-11-11-12-12-12---|
E|--0--2--2---------0--4--4---------0--0--0--0--0--0--0----------------------|

e|---------------------------------------------------------------------------|
B|---------------------------------------------------------------------------|
G|----------9--8------------9--8------------9--8-----9--8-----9-11-----------|
D|---4--4------------6--6------------2--2------------------------------------|
A|---4--4---7--6-----6--6---7--6-----2--2---7--6-----7--6-----7--9-----------|
E|---2--2---------0--4--4---------0--0--0---------0--------0-----------------|

e|---------------------------------------------------------------------------|
B|---------------------------------------------------------------------------|
G|------------9--8------------9--8-------------------------------------------|
D|-----4--4------------6--6------------5-----4-------------------------------|
A|-----4--4---7--6-----6--6---7--6-----5-----4-------------------------------|
E|--0--2--2---------0--4--4---------0--3-----2-------------------------------|

Interlude
e|---------------------------0-----------------------------------------------|
B|-----------------------------0---------------------------------------------|
G|--4--4--4---3h4p3----3-4-6-----3-------------------------------------------|
D|--4--4--4----------4----------------7-7-7-7-7-7--2-2-2-2-2-2---------------|
A|--2--2--2---------------------------7-7-7-7-7-7--2-2-2-2-2-2---------------|
E|------------------------------------5-5-5-5-5-5--0-0-0-0-0-0---------------|

e|---------------------------7-----------------------------------------------|
B|-----------------------------7---------------------------------------------|
G|--4--4--4---3h4p3----3-4-6-----9-----------------9-9-9-9-9-9---------------|
D|--4--4--4----------4----------------7-7-7-7-7-7--9-9-9-9-9-9---------------|
A|--2--2--2---------------------------7-7-7-7-7-7--7-7-7-7-7-7---------------|
E|------------------------------------5-5-5-5-5-5----------------------------|

Verse 2
e|---------------------------------------------------------------------------|
B|---------------------------------------------------------------------------|
G|---4---------4----------------4---------4---------4-------------4----------|
D|---4---------4---------4------4---------4---------4------7--2---4---7---2--|
A|---2-2-2-2-2-2-2-2-2-2-2-2-2--2-2-2-2-2-2-2-2-2-2-2-2-2--7--2---2---7---2--|
E|---------------------------------------------------------5--0-------5---0--|

Interlude
e|----------2------------x\--------------------------------------------------|
B|----------2------------x\--------------------------------------------------|
G|--4----4--4------------x\--------------------------------------------------|
D|--4----4-------------------------------------------------------------------|
A|--2----2-------------------------------------------------------------------|
E|---------------------------------------------------------------------------|

(Chorus)

Bridge
e|---------------------------------------------------------------------------|
B|---------------------------------------------------------------------------|
G|---4--4--4---4--4--4-------------------------------------------------------|
D|---4--4--4---4--4--4---7--7--7---6--6--6--x--4-----------------------------|
A|---2--2--2---2--2--2---7--7--7---6--6--6--x--4-----------------------------|
E|-----------------------5--5--5---4--4--4--x--2-----------------------------|

e|---------------------------------------------------------------------------|
B|---------------------------------------------------------------------------|
G|---4--4--4----------4--4--4------------------------------------------------|
D|---4--4--4----------4--4--4------------7--7--7-----------6--6--6--x--4-----|
A|---2--2--2----------2--2--2------------7--7--7-----------6--6--6--x--4-----|
E|-------------(19\)------------(19\)----5--5--5---(19\)---4--4--4--x--2-----|

e|---------------------------------------------------------------------------|
B|---------------------------------------------------------------------------|
G|---4--4--4--(----4)--4--4--4--(----4)-----------(----4)--------------------|
D|---4--4--4--(4-4-4)--4--4--4--(4-4-4)--7--7--7--(4-4-4)--6--6--6--x--4-----|
A|---2--2--2-----------2--2--2-----------7--7--7-----------6--6--6--x--4-----|
E|---------------------------------------5--5--5-----------4--4--4--x--2-----|

e|---------------------------------------------------------------------------|
B|---------------------------------------------------------------------------|
G|---4--4--4--(----4)--4--4--4--(----4)-----------(----4)--------------------|
D|---4--4--4--(4-4-4)--4--4--4--(4-4-4)--7--7--7--(4-4-4)--6--6--6--x--5-----|
A|---2--2--2-----------2--2--2-----------7--7--7-----------6--6--6--x--5-----|
E|------------(19\)-------------(19\)----5--5--5--(19\)----4--4--4--x--3-----|

Intro
e|--2---4---0-----------2---4---0--------------------------------------------|
B|--2---4---0-----------2---4---0--------------------------------------------|
G|--3---4---1-----------3---4---1--------------------------------------------|
D|--4---6---2-----------4---6---2--------------------------------------------|
A|--4---6---2-----------4---6---2--------------------------------------------|
E|--2---4---0-----------2---4---0--------------------------------------------|

(Chorus)

Outro
e|-----------------------------0--2--6--7-----------------------------------|
B|--------------------------------------------------------------------------|
G|-----4--4---3h4p3----3-4-6------------------------------------------------|
D|-----4--4----------4------------------------------------------------------|
A|--2--2--2-----------------------------------------------------------------|
E|--------------------------------------------------------------------------|

===============================================================================
     
Добавлено: 01.12.2013
Другие материалы по этой песне:
  • Аккорды и текст

Страница создана 01.12.2013
http://primanota.ru/home-grown/promise-breaker-chords.htm
Привет, Гость.
Предлагаем пройти революционный курс по гитаре.
Подарок от PrimaNota.Ru, забирай!