PrimaNota.ru - самый крупный в мире бесплатный архив песенных текстов, аккордов, табулатур и нот


Home Grown - Piss Off - текст песни, таба, видео

Регистрация Запомнить меня
Войти через:  Facebook Google Twitter Vk Yandex Mail.ru

Home Grown - Piss Off - текст песни, таба, видео

Печатать
Просмотров: 79
Intro

e-|----------------------------------------------------------------------------|
B-|----------------------------------------------------------------------------|
G-|----6-6-----8-8-----6-6-6-x-x-x-x----6-6-----8-8-8-6-6-5-6-6-8-8-8-8--------|
D-|--6-6-6-6-6-8-8-6-6-6-6-6-x-x-x-x--6-6-6-6-6-8-8-8-6-6-5-6-6-8-8-8-8--------|
A-|--6-4-4-6-6-6-6-6-6-4-4-4-x-x-x-x--6-4-4-6-6-6-6-6-4-4-3-4-4-6-6-6-6--------|
E-|--4-----4-4-----4-4----------------4-----4-4-------------------------(yell)-|

e-|----------------------------------------------------------------------------|
B-|----------------------------------------------------------------------------|
G-|----6-6-----8-8-----6-6-6-8-8-8-8-8-10-8----6-6-----8-8-8-6-6-5-6-6-8-8-8-8-|
D-|--6-6-6-6-6-8-8-6-6-6-6-6-8-8-8-8-8-10-8--6-6-6-6-6-8-8-8-6-6-5-6-6-8-8-8-8-|
A-|--6-4-4-6-6-6-6-6-6-4-4-4-6-6-6-6-6--8-6--6-4-4-6-6-6-6-6-4-4-3-4-4-6-6-6-6-|
E-|--4-----4-4-----4-4-----------------------4-----4-4-------------------------|

Ska Verse
(listen for strokes)
"Abuse me with all of...."

e-|--4---4-----|
B-|--4---4-----|
G-|--5-6-5-6-8-|
D-|--6-6-6-6-8-|
A-|--6-4-6-4-6-|
E-|--4---4-----|

"Dont tell me what you think..."                   "I didnt ask for.."
  ///slide///
e-|----------------------------------------------------------------------------|
B-|----------------------------------------------------------------------------|
G-|--6-6-6-6-6-6-6-6-6-8-8-8-8-8-8-10-10-10-8-8-8--6-6-6-6-6-6-6-6-8-8-8-8-8-8-|
D-|--6-6-6-6-6-6-6-6-6-8-8-8-8-8-8-10-10-10-8-8-8--6-6-6-6-6-6-6-6-8-8-8-8-8-8-|
A-|--4-4-4-4-4-4-4-4-4-6-6-6-6-6-6--8--8--8-6-6-6--4-4-4-4-4-4-4-4-6-6-6-6-6-6-|
E-|----------------------------------------------------------------------------|

"Why dont you Shut up..."

e-|------------------------------------------|
B-|------------------------------------------|
G-|------------------10-10-10-8-8-8-8-8------|
D-|--6-6-6-6-6-3-3-3-10-10-10-8-8-8-8-8-(3x)-|
A-|--6-6-6-6-6-3-3-3--8--8--8-6-6-6-6-6------|
E-|--4-4-4-4-4-1-1-1-------------------------|

"It's something i ignore..."

e-|---------------------------------|
B-|---------------------------------|
G-|--6-5-5-6-6-5-5-6-10-10-10-10-10-|
D-|--6-5-5-6-6-5-5-6-10-10-10-10-10-|
A-|--4-3-3-4-4-3-3-4--8--8--8--8--8-|
E-|---------------------------------|

"Things you say to me.."

e-|----------------------------------------------|
B-|---------------------(woo)--------------------|
G-|------------6-6-6-5-6----------------10-6-8-8-|
D-|--6-6-6-6-6-6-6-6-5-6------6-6-6-6-6-10-6-8-8-|
A-|--6-6-6-6-6-4-4-4-3-4------6-6-6-6-6--8-4-6-6-|
E-|--4-4-4-4-4----------------4-4-4-4-4----------|

e-|-------------------------------------|
B-|-------------------------------------|
G-|------------6-6-6-5-6---6-6-5-6-6-8--|
D-|--6-6-6-6-6-6-6-6-5-6---6-6-5-6-6-8--|
A-|--6-6-6-6-6-4-4-4-3-4---4-4-3-4-4-6--|
E-|--4-4-4-4-4--------------------------|

Ska Verse
(listen for strokes)
"Degrade me by calling me names.."

e-|--4---4-----|
B-|--4---4-----|
G-|--5-6-5-6-8-|
D-|--6-6-6-6-8-|
A-|--6-4-6-4-6-|
E-|--4---4-----|


"Dont tell me what you think..."                   "I didnt ask for.."
  ///slide///
e-|----------------------------------------------------------------------------|
B-|----------------------------------------------------------------------------|
G-|--6-6-6-6-6-6-6-6-6-8-8-8-8-8-8-10-10-10-8-8-8--6-6-6-6-6-6-6-6-8-8-8-8-8-8-|
D-|--6-6-6-6-6-6-6-6-6-8-8-8-8-8-8-10-10-10-8-8-8--6-6-6-6-6-6-6-6-8-8-8-8-8-8-|
A-|--4-4-4-4-4-4-4-4-4-6-6-6-6-6-6--8--8--8-6-6-6--4-4-4-4-4-4-4-4-6-6-6-6-6-6-|
E-|----------------------------------------------------------------------------|

"Why dont you Shut up..."

e-|------------------------------------------|
B-|------------------------------------------|
G-|------------------10-10-10-8-8-8-8-8------|
D-|--6-6-6-6-6-3-3-3-10-10-10-8-8-8-8-8-(3x)-|
A-|--6-6-6-6-6-3-3-3--8--8--8-6-6-6-6-6------|
E-|--4-4-4-4-4-1-1-1-------------------------|

"It's something i ignore..."

e-|---------------------------------|
B-|---------------------------------|
G-|--6-5-5-6-6-5-5-6-10-10-10-10-10-|
D-|--6-5-5-6-6-5-5-6-10-10-10-10-10-|
A-|--4-3-3-4-4-3-3-4--8--8--8--8--8-|
E-|---------------------------------|

"Things you say to me.."
                                                       m-m-m-m-m-m-m-m-m-m-m-|
e-|--------------------------------------------------------------------------|
B-|--------------------------------------------------------------------------|
G-|-------------6--------8--------10---------8---------6-6-6-6-6-6-8-8-8-8-8-|
D-|-6--6--------6--------8--------10---------8---------6-6-6-6-6-6-8-8-8-8-8-|
A-|-6--6-(ring)-4-(ring)-6-(ring)--8-(ring)--6-(ring)--4-4-4-4-4-4-6-6-6-6-6-|
E-|-4--4---------------------------------------------------------------------|

SOLO

GUITAR 1 !!

e-|-----------------------------------------------------------------|
B-|-----------------------------------------------------------------|
G-|-----------------------------------------------13-13-12-10-12-9--|
D-|-------13-11-10-------11-10-----------13-11-10-------------------|
A-|--6/11----------11-11--------11----11----------------------------|
E-|--------------------------------11-------------------------------|

e-|----11-9-9-8---11-9-9-8----------------|
B-|--9----------9----------11--9-8-11-9-8-|
G-|---------------------------------------|
D-|---------------------------------------|
A-|---------------------------------------|
E-|---------------------------------------|

Guitar 2 plays during SOLO

e-|------------------------------------------|
B-|------------------------------------------|
G-|------------------10-10-10-8-8-8-8-8------|
D-|--6-6-6-6-6-3-3-3-10-10-10-8-8-8-8-8-(3x)-|
A-|--6-6-6-6-6-3-3-3--8--8--8-6-6-6-6-6------|
E-|--4-4-4-4-4-1-1-1-------------------------|

END
                                                  BLAH
e-|----------------------------------------------------|
B-|----------------------------------------------------|
G-|--6-5-5-6-6-5-5-6-10-10-10-10-10-10-10-10-10--------|
D-|--6-5-5-6-6-5-5-6-10-10-10-10-10-10-10-10-10---6----|
A-|--4-3-3-4-4-3-3-4--8--8--8--8--8--8--8--8--8---6----|
E-|-----------------------------------------------4----|
Добавлено: 01.03.2016
Другие материалы по этой песне:
  • Аккорды и текст

Страница создана 09.04.2012
http://primanota.ru/home-grown/piss-off-chords.htm
Привет, Гость.
Предлагаем пройти революционный курс по гитаре.
Подарок от PrimaNota.Ru, забирай!