PrimaNota.ru - самый крупный в мире бесплатный архив песенных текстов, аккордов, табулатур и нот


Home Grown - One Night Stand - текст песни, бас-таба, видео

Регистрация Запомнить меня
Войти через:  Facebook Google Twitter Vk Yandex Mail.ru

Home Grown - One Night Stand - текст песни, бас-таба, видео

Печатать
Просмотров: 132
One Night Stand

TABBED BY: Cameron

< = STRUM

intro: 2x
G|----------------------------------|
D|---4-8-4---4-8-4----3-6-3---3-6-3-|
A|-6-------6--------4-------4-------|
E|----------------------------------|

verse: 4x
G|----------------------------------|
D|---4-8-4---4-8-4----3-6-3---3-6-3-|
A|-6-------6--------4-------4-------|
E|----------------------------------|

chorus: 4x
G|----------------------------------|
D|----------------------------------|
A|-7>--5>--7>------7>--5>--8>--7>---|
E|-------------7>-------------------|

riff 1 2x
G|----------------------------------|
D|---4-8-4---4-8-4----3-6-3---3-6-3-|
A|-6-------6--------4-------4-------|
E|----------------------------------|

verse: 4x

chorus: 4x

riff 2 8x
G|----------------------------------|
D|----------------------------------|
A|-7>--5>--3>--2>-------------------|
E|----------------------------------|

riff 1 2x (play during guitar solo)

verse: 4x

riff 2 14x

1 
Добавлено: 18.07.2012
Другие материалы по этой песне:
  • Аккорды и текст

Страница создана 09.03.2012
http://primanota.ru/home-grown/one-night-stand-chords.htm
Привет, Гость.
Предлагаем пройти революционный курс по гитаре.
Подарок от PrimaNota.Ru, забирай!