PrimaNota.ru - самый крупный в мире бесплатный архив песенных текстов, аккордов, табулатур и нот


Home Grown - Kids - текст песни, бас-таба, видео

Регистрация Запомнить меня
Войти через:  Facebook Google Twitter Vk Yandex Mail.ru

Home Grown - Kids - текст песни, бас-таба, видео

Печатать
Просмотров: 136
Kids
Tabbed by: Mike Lasse

intro:
----------------------------------|
---------------------5-5-5-5-3-2--|
-----5-5-5-5-3-2--3---------------|
--3-------------------------------|

---------------------------4-5-7--|
---------------------5-5-5--------|
-----5-5-5-5-3-2--3---------------|
--3-------------------------------|

----------------------------------|
---------------------5-5-5-5-3-2--|
-----5-5-5-5-3-2--3---------------|
--3-------------------------------|

-------------4h6h7----------------|
-------4--7-----------------------|
--3/5-----------------------------|
----------------------------------|


verse intro:
-------------------------------------------5-4-2------------|
------5-5-3-2------2h3-3-2--------5-5-3-2--------5-3-2------|
----5----------3-3---------5----5----------------------5-3--|
--3---------------------------3-----------------------------|

---------------------------------------------5-4-2-4--|
------5-5-3-2------2h3-3-2--------4-5-7----5----------|
----5----------3-3---------3--5-5--------3------------|
--3---------------------------------------------------|


verse:                      x2
------------------------------|
------5-5-3-2------2h3-3-2----|
----5----------3-3---------5--|
--3---------------------------|

--------------------------------------------5-4-2-4--|
------5-5-3-2-----2h3-3-2--------4-5-7----5----------|
----5---------3-3---------3--5-5--------3------------|
--3--------------------------------------------------|

play verse 2 times

prechorus: x various amounts of times depending on which time it is played
------------------------------------------------------------|
------------------------------------------------------------|
--5--5-5-5--5-5-5--5-5-5--5-5--3--3-3-3--3-3-3--3-3-3--3-3--|
------------------------------------------------------------|

::play verse intro

verse 2:
                            x2
------------------------------|
------5-5-3-2------2h3-3-2----|
----5----------3-3---------5--|
--3---------------------------|

--------------------------------------------5-4-2-4--|
------5-5-3-2-----2h3-3-2--------4-5-7----5----------|
----5---------3-3---------3--5-5--------3------------|
--3--------------------------------------------------|

                  x2
--------------------|
--------------------|
-----5-5-5-5-2-5-3--|
--3-----------------|

--------------------|
----4-5-7-5-4-------|
--5-----------5--3--|
--------------------|

::play prechorus

chorus:
---------------------------------------------------------|
---------------------------------------------------------|
----------------5-5-5--5-5-5--3-3--3-3-3--3--3-3--3-3-3--|
--3--3-3-3-3-3-------------------------------------------|

-------------------------------------------------------|
-------------------------------------------------------|
-------------------------------------3--5--5-5--5-5-5--|
--3--3-3-3-3--0--0-0--0-0-0--5-5-3h5-------------------|

---------------------------------------------------------|
---------------------------------------------------------|
----------------5-5-5--5-5-5--3-3--3-3-3--3--3-3--3-3-3--|
--3--3-3-3-3-3-------------------------------------------|

"always having a good time, never wanting to grow old"
-------------------------------------------------------|
-------------------------------------------------------|
-----------------------3-------------6----5------------|
--5----------------------------------------------------|


breakdown i guess:      x3
--------------------------|
-----------------2---2h3--|
--------2----3-3---3------|
--3-3-3---3---------------|

--------------------------|
------7----------2---2h3--|
--5-5---5--3-3-3---3------|
--------------------------|
                                                                     x2
-----------------------------------------------------------------------|
-------------------------------------------------------7-7-7-7-7---7---|
----5-5-5-5-2-5-3----5-5-5-5-2-5-3----5-5-5-5-2-5-3--5-----------5---3-|
--3----------------3----------------3----------------------------------|

prechorus
chorus

ending:
----------------------------------|
---------------------5-5-5-5-3-2--|
-----5-5-5-5-3-2--3---------------|
--3-------------------------------|

---------------------------4-5-7--|
---------------------5-5-5--------|
-----5-5-5-5-3-2--3---------------|
--3-------------------------------|

----------------------------------|
---------------------5-5-5-5-3-2--|
-----5-5-5-5-3-2--3---------------|
--3-------------------------------|

------------------|
-------4-7--------|
--3/5-------------|
------------2--3--|

-------------------|
--5----------------|
----5-5-6-5--------|
-------------2--3--|
Добавлено: 23.03.2012
Другие материалы по этой песне:
  • Аккорды и текст

Страница создана 23.03.2012
http://primanota.ru/home-grown/kids-chords.htm
Привет, Гость.
Предлагаем пройти революционный курс по гитаре.
Подарок от PrimaNota.Ru, забирай!