PrimaNota.ru - самый крупный в мире бесплатный архив песенных текстов, аккордов, табулатур и нот


Home Grown - I Hate Myself - текст песни, таба, видео

Регистрация Запомнить меня
Войти через:  Facebook Google Twitter Vk Yandex Mail.ru

Home Grown - I Hate Myself - текст песни, таба, видео

Печатать
Просмотров: 49
Intro Guitar 1

e| -------------------------------------------------|
B| -------------------------------------------------|
G| -9-9-9-9-9/11-11-11/9-9-9------------------------|
D| -9-9-9-9-9/11-11-11/9-9-9---7-7-7-7-7/9-9-9-9-9--|
A| -7-7-7-7-7/-9--9--9/7-7-7---7-7-7-7-7/9-9-9-9-9--|
E| ----------------------------5-5-5-5-5/7-7-7-7-7--|

Guitar 2 (guitar 1 plays first part of intro)

e| -------------------------------|
B| -------------------------------|
G| -9-ring------------------------|
D| -9-----------both -------7--9--|
A| -7-----------guitars-----7--9--|
E| -------------ring--------5--7--|


Both Guitars 4x

e| -------------------------------------------------|
B| -------------------------------------------------|
G| -9-9-9-9-9/11-11-11/9-9-9------------------------|
D| -9-9-9-9-9/11-11-11/9-9-9---7-7-7-7-7/9-9-9-9-9--|
A| -7-7-7-7-7/-9--9--9/7-7-7---7-7-7-7-7/9-9-9-9-9--|
E| ----------------------------5-5-5-5-5/7-7-7-7-7--|

Verse 1 4x (listen to cd you'll get the idea)

e| ----------------------------------|
B| ----------------------------------|
G| -xxxx/11-11/9-9-------------------|
D| -xxxx/11-11/9-9---xxxx/9-x-9-x-9--|
A| -xxxx/-9--9/7-7---xxxx/9-x-9-x-9--|
E| ------------------xxxx/7-x-7-x-7--|

My Lifes A waste (listen for strokes) 4x

e| ------------|
B| ------------|
G| ------------|
D| --11--7--9--|
A| --11--7--9--|
E| ---9--5--7--|

It's time to move on 2x

e| -------------------------------------------------|
B| -------------------------------------------------|
G| -9-9-9-9-9/11-11-11/9-9-9------------------------|
D| -9-9-9-9-9/11-11-11/9-9-9---7-7-7-7-7/9-9-9-9-9--|
A| -7-7-7-7-7--9--9--9/7-7-7---7-7-7-7-7/9-9-9-9-9--|
E| ----------------------------5-5-5-5-5/7-7-7-7-7--|

Verse1  4x (listen to cd you'll get the idea)

e| ----------------------------------|
B| ----------------------------------|
G| -xxxx/11-11/9-9-------------------|
D| -xxxx/11-11/9-9---xxxx/9-x-9-x-9--|
A| -xxxx/-9--9/7-7---xxxx/9-x-9-x-9--|
E| ------------------xxxx/7-x-7-x-7--|


My Lifes A waste (listen for strokes) 4x

e| ------------|
B| ------------|
G| ------------|
D| --11--7--9--|
A| --11--7--9--|
E| ---9--5--7--|

It's time To move on (Listen for strokes)4x

e| --------------|
B| --------------|
G| --9-----------|
D| --9--9--6--7--|
A| --7--9--6--7--|
E| -----7--4--5--|

SOLO: It should be correct(listen for exact # of Hits)

e| ---------------------------------------------------|
B| ---------------------------------------------------|
G| -8-10-12-13-15-15-13-12-13-12-10-15-13-12-13-12-10-|
D| ---------------------------------------------------|
A| ---------------------------------------------------|
E| ---------------------------------------------------|


e| -------------------------------------------------|
B| -------------------------------------------------|
G| -15-13-12-13-12-10-12-10-8-10-8-7-8-/-12-ring----|
D| -------------------------------------------------|
A| -------------------------------------------------|
E| -------------------------------------------------|

Verse2   4x (listen to cd you'll get the idea)

e| ------------------------------------|
B| ------------------------------------|
G| ------------------------------------|
D| ----xxxx9--9-x-9--3x then---7-7-7/9-|
A| ----xxxx9--9-x-9------------7-7-7/9-|
E| ----xxxx7--7-x-7------------5-5-5/7-|

My Lifes A waste (listen for strokes) 4x

e| ------------|
B| ------------|
G| ------------|
D| --11--7--9--|
A| --11--7--9--|
E| ---9--5--7--|

It's time To move on (Listen for strokes)4x

e| --------------|
B| --------------|
G| --9-----------|
D| --9--9--6--7--|
A| --7--9--6--7--|
E| -----7--4--5--|

Fin.
Добавлено: 15.05.2016
Другие материалы по этой песне:
  • Аккорды и текст

Страница создана 04.05.2012
http://primanota.ru/home-grown/i-hate-myself-chords.htm
Привет, Гость.
Предлагаем пройти революционный курс по гитаре.
Подарок от PrimaNota.Ru, забирай!