PrimaNota.ru - самый крупный в мире бесплатный архив песенных текстов, аккордов, табулатур и нот


Home Grown - Hearing Song - текст песни, таба, бас-таба, видео

Регистрация Запомнить меня
Войти через:  Facebook Google Twitter Vk Yandex Mail.ru

Home Grown - Hearing Song - текст песни, таба, бас-таба, видео

Печатать
Просмотров: 168
LISTEN TO THE CD FOR REFERENCE

intro:(ska riff1)

e-|-x-7-x-7-x-2-x-2-x-5-x-5-x-7-x-7-|(play 3x then move
B-|-x-7-x-7-x-2-x-2-x-5-x-5-x-9-x-9-|   on to next part)
G-|-x-8-x-8-x-2-x-2-x-6-x-6-x-9-x-9-|
D-|-x-9-x-9-x-4-x-4-x-7-x-7-x-9-x-9-|
A-|---------------------------------|
E-|---------------------------------|

(with distortion and pauses)

e-|---------------------------------|
B-|---------------------------------|
G-|-------------------------9-------|
D-|-9-------4-------7-------9-------|
A-|-9-------4-------7-------7-------|
E-|-7-------2-------5---------------|

verse:  "Huh? What did you say?..."
(play ska riff 8x)
chorus1:"Huh? What?"(with distortion, and pauses)(played 2x)

e-|---------------------------------------------------------|
B-|---------------------------------------------------------|
G-|---------------------------------------------9-9-9-9-9-9-|
D-|-9-------9-------9-------9-------7-7-7-7-7-7-9-9-9-9-9-9-|
A-|-9-------9-------9-------9-------7-7-7-7-7-7-7-7-7-7-7-7-|
E-|-7-------7-------7-------7-------5-5-5-5-5-5-------------|

repeat intro
"It's always the same..."(play ska riff1 8x)chorus

e-|---------------------------------------------------------|
B-|---------------------------------------------------------|
G-|---------------------------------------------9-9-9-9-9-9-|
D-|-9-------9-------9-------9-------7-7-7-7-7-7-9-9-9-9-9-9-|
A-|-9-------9-------9-------9-------7-7-7-7-7-7-7-7-7-7-7-7-|
E-|-7-------7-------7-------7-------5-5-5-5-5-5-------------|

"If I wanna talk..."

e-|-------------------------------------------------------------------|
B-|-------------------------------------------------------------------|
G-|-------------9-9-9-9-9-9-------------9-9-9-9-9-9-------------------|
D-|-7-7-7-7-7-7-9-9-9-9-9-9-7-7-7-7-7-7-9-9-9-9-9-9-9-------9-------9-|
A-|-7-7-7-7-7-7-7-7-7-7-7-7-7-7-7-7-7-7-7-7-7-7-7-7-9-------9-------9-|
E-|-5-5-5-5-5-5-------------5-5-5-5-5-5-------------7-------7-------7-|
break:
(ska riff2)

e-|-x-7-x-7-x-7-x-7-x-7-x-7-x-7-x-7-x-5-x-5-x-5-x-5-x-5-x-5-x-5-x-5-|
B-|-x-7-x-7-x-7-x-7-x-7-x-7-x-7-x-7-x-5-x-5-x-5-x-5-x-5-x-5-x-5-x-5-|
G-|-x-8-x-8-x-8-x-8-x-8-x-8-x-8-x-8-x-6-x-6-x-6-x-6-x-6-x-6-x-6-x-6-|
D-|-x-9-x-9-x-9-x-9-x-9-x-9-x-9-x-9-x-7-x-7-x-7-x-7-x-7-x-7-x-7-x-7-|
A-|-----------------------------------------------------------------|
E-|-----------------------------------------------------------------|


e-|-x-7-x-7-x-7-x-7-x-7-x-7-x10-x10-x-7-x-7-x-7-x-7-x-7-x-7-x-7-x-7-|
B-|-x-9-x-9-x10-x-9-x10-x-9-x-9-x-9-x-7-x-7-x-7-x-7-x-7-x-7-x-7-x-7-|
G-|-x-9-x-9-x-9-x-9-x-9-x-9-x-9-x-9-x-8-x-8-x-8-x-8-x-8-x-8-x-8-x-8-|
D-|-x-9-x-9-x-9-x-9-x-9-x-9-x-9-x-9-x-9-x-9-x-9-x-9-x-9-x-9-x-9-x-9-|
A-|-----------------------------------------------------------------|
E-|-----------------------------------------------------------------|

(with distortion)

e-|-----|
B-|-----|
G-|-----|
D-|-9-7-|
A-|-9-7-|
E-|-7-5-|
chorus2end
Добавлено: 01.03.2016
Другие материалы по этой песне:
  • Аккорды и текст

Страница создана 05.04.2012
http://primanota.ru/home-grown/hearing-song-chords.htm
Привет, Гость.
Предлагаем пройти революционный курс по гитаре.
Подарок от PrimaNota.Ru, забирай!