PrimaNota.ru - самый крупный в мире бесплатный архив песенных текстов, аккордов, табулатур и нот


Home Grown - Hanging Out - текст песни, таба, видео

Регистрация Запомнить меня
Войти через:  Facebook Google Twitter Vk Yandex Mail.ru

Home Grown - Hanging Out - текст песни, таба, видео

Печатать
Просмотров: 65
INTRO(listen for strokes)

e| -----------------------------------------------|
B| -----------------------------------------------|
G| -7-x-7-x---------7-x-7-x-----------------------|
D| -7-x-7-x-5-x-5-x-7-x-7-x-5-x-5-x-9-x-9-x-7-x-7-|
A| -5-x-5-x-5-x-5-x-5-x-5-x-5-x-5-x-9-x-9-x-7-x-7-|
E| ---------3-x-3-x---------3-x-3-x-7-x-7-x-5-x-5-|

Fig.2(listen for strokes)
e| -----------------|
B| -----------------|
G| -5-7-5-7-5-7-5-7-|
D| -5-7-5-7-5-7-5-5-|
A| -3-5-3-5-3-5-3-5-|
E| -----------------|

Fig.3(listen for strokes)
e| ------------------|
B| ------------------|
G| -7-----7----------|
D| -5--5--7--5--9--7-|
A| -5--5--5--5--9--7-|
E| ----3-----3--7--5-|

fig.4(listen for strokes)
e| -----------------------------|
B| -----------------------------|
G| -7-------7-------7-----------|Repeat
D| -5-5-9-7-5-5-9-7-5-5-9-7-5-7-|
A| -5-5-9-7-5-5-9-7-5-5-9-7-5-7-|
E| ---3-7-5---3-7-5---3-7-5-3-5-|

Fig.5(listen for strokes)
e| -----------------------------|
B| -----------------------------|
G| -----------------------------|
D| --5-4-9-7--5-4-9-7--5-4-9-7--|
A| --5-4-9-7--5-4-9-7--5-4-9-7--|
E| --3-2-7-5--3-2-7-5--3-2-7-5--|

Fig.6
e| -------|
B| -------|
G| -7-7-7-|
D| -7-7-7-|
A| -5-5-5-|
E| -------|
Добавлено: 01.03.2016
Другие материалы по этой песне:
  • Аккорды и текст

Страница создана 28.04.2012
http://primanota.ru/home-grown/hanging-out-chords.htm
Привет, Гость.
Предлагаем пройти революционный курс по гитаре.
Подарок от PrimaNota.Ru, забирай!