PrimaNota.ru - самый крупный в мире бесплатный архив песенных текстов, аккордов, табулатур и нот


Home Grown - Envy Me - текст песни, таба, бас-таба, видео

Регистрация Запомнить меня
Войти через:  Facebook Google Twitter Vk Yandex Mail.ru

Home Grown - Envy Me - текст песни, таба, бас-таба, видео

Печатать
Просмотров: 156
Intro Rhythm (X2) (Start with pick scrapes!)
e|---------------------------------------------------------------------------|
B|---------------------------------------------------------------------------|
G|---------------5-------------------------------5-9-9-9-9-9-9-9-9-----------|
D|-7-7-7-7-7-7-7-5-2-2-2-2-2-2-2-5-7-7-7-7-7-7-7-5-9-9-9-9-9-9-9-9-----------|
A|-7-7-7-7-7-7-7-3-2-2-2-2-2-2-2-5-7-7-7-7-7-7-7-3-7-7-7-7-7-7-7-7-----------|
E|-5-5-5-5-5-5-5---0-0-0-0-0-0-0-3-5-5-5-5-5-5-5-----------------------------|

Verse (X2)
e|---------------------------------------------------------------------------|
B|---------------------------------------------------------------------------|
G|---------7-7-7-7---------4-4-4-4---------7-7-7-7--9-9-9-9-9-9-9-9----------|
D|-7-7-7-7-7-7-7-7-4-4-4-4-4-4-4-4-7-7-7-7-7-7-7-7--9-9-9-9-9-9-9-9----------|
A|-7-7-7-7-5-5-5-5-4-4-4-4-2-2-2-2-7-7-7-7-5-5-5-5--7-7-7-7-7-7-7-7----------|
E|-5-5-5-5---------2-2-2-2---------5-5-5-5-----------------------------------|
|---------------P.M. First Time-----------------|

Prechorus (X2)
e|---------------------------------------------------------------------------|
B|---------------------------------------------------------------------------|
G|-7--7-7-7--9--9-9-9--------------------------------------------------------|
D|-7--7-7-7--9--9-9-9--7-7-7-7-4-4-4-4---------------------------------------|
A|-5--5-5-5--7--7-7-7--7-7-7-7-4-4-4-4---------------------------------------|
E|---------------------5-5-5-5-2-2-2-2---------------------------------------|
|-P.M.| |-P.M.|

e|---------------------------------------------------------------------------|
B|---------------------------------------------------------------------------|
G|-7-7-7-7-7-7-7-7-9-9-9-9-9-9-9-9-7-7-7-7-7-7-7-7-9-9-9-9-9-9-9-9-----------|
D|-7-7-7-7-7-7-7-7-9-9-9-9-9-9-9-9-7-7-7-7-7-7-7-7-9-9-9-9-9-9-9-9-----------|
A|-5-5-5-5-5-5-5-5-7-7-7-7-7-7-7-7-5-5-5-5-5-5-5-5-7-7-7-7-7-7-7-7-----------|
E|---------------------------------------------------------------------------|

Chorus (X3)
e|---------------------------------------------------------------------------|
B|---------------------------------------------------------------------------|
G|-------------------7-7-7-7-4-4-4-4-----------------------------------------|
D|-7-7-7-7-4-4-4-4---7-7-7-7-4-4-4-4-----------------------------------------|
A|-7-7-7-7-4-4-4-4---5-5-5-5-2-2-2-2-----------------------------------------|
E|-5-5-5-5-2-2-2-2-----------------------------------------------------------|

End Chorus
e|---------------------------------------------------------------------------|
B|---------------------------------------------------------------------------|
G|---------------------------------------------------------------------------|
D|-7-7-7-7-7-7-7-7-6-6-6-6-6-6-6-6------------7 -----------------------------|
A|-7-7-7-7-7-7-7-7-6-6-6-6-6-6-6-6---and then 7-if leading into bridge-------|
E|-5-5-5-5-5-5-5-5-4-4-4-4-4-4-4-4------------5------------------------------|

Bridge
e|---------------------------------------------------------------------------|
B|---------------------------------------------------------------------------|
G|-------------8-8-----6-6-X-X-X-X-10-10-8-8---------------------------------|
D|-6-6-X-X-X-X-8-8-8-8-6-6-X-X-X-X-10-10-8-8---------------------------------|
A|-6-6-X-X-X-X-6-6-8-8-4-4-X-X-X-X-8--8--6-6---------------------------------|
E|-4-4-X-X-X X-----6-6-------------------------------------------------------|

(this bit actually with two guitars but tabbed for one)
e|---------------------------------------------------------------------------|
B|---------------------------------------------------------------------------|
G|--------------8---8---6-6-X-X-X-X-10-10-8-8--------------------------------|
D|-6-6-X-X-X-X--8-8-8-8-6-6-X-X-X-X-10-10-8-8--------------------------------|
A|-6-6-X-X-X-X--6-8-6-8-4-4-X-X-X-X-8--8--6-6--------------------------------|
E|-4-4-X-X-X-X----6---6------------------------------------------------------|

Rhythm Under Solo (Repeat twice under solo, which only goes once) Each note X8
except for last 2, they are X4 each)
e|---------------------------------------------------------------------------|
B|---------------------------------------------------------------------------|
G|-9---7---13---10------------------9---7---13-------------------------------|
D|-9---7---13---10-first time then--9---7---13-------------------------------|
A|-7---5---11---8-------------------7---5---11-------------------------------|
E|---------------------------------------------------------------------------|

Solo
e|-----------------4-4-4-4-4-6-1-----------------4-4-4-4-4-6-8-6-------------|
B|-4-4-4-4-4-1-2-1---------------4-4-4-4-4-1-2-1-----------------------------|
G|---------------------------------------------------------------------------|
D|---------------------------------------------------------------------------|
A|---------------------------------------------------------------------------|
E|---------------------------------------------------------------------------|
Добавлено: 10.09.2015
Другие материалы по этой песне:
  • Аккорды и текст

Страница создана 31.03.2012
http://primanota.ru/home-grown/envy-me-chords.htm
Привет, Гость.
Предлагаем пройти революционный курс по гитаре.
Подарок от PrimaNota.Ru, забирай!