PrimaNota.ru - самый крупный в мире бесплатный архив песенных текстов, аккордов, табулатур и нот


Home Grown - Cross My Heart - текст песни, таба, видео

Регистрация Запомнить меня
Войти через:  Facebook Google Twitter Vk Yandex Mail.ru

Home Grown - Cross My Heart - текст песни, таба, видео

Печатать
Просмотров: 116
Cross My Heat - by Home Grown
-----------------------------------------------------------------------------
Tuning-half step down
tabbed by-your nigga Fugi

      Yo, this is ur boi Fugi, this is my first tab(syke). this is a bad song nigga, 
remember, "stay freash as i'm is"

for main riffs, both guitars probably do the chords and the little riffs in between
but i just broke it down into two seperate things to make it easy

Intro- Guitar 1
e|-------------------------------------------------|
B|-------------------------------------------------|
G|-------------------------------------------------|
D|-3-3-3-3---3-3-3-3---5-5-5-5---7-7-7-7-----------|
A|-3-3-3-3---3-3-3-3---5-5-5-5---7-7-7-7-----------|
E|-1-1-1-1---1-1-1-1---3-3-3-3---5-5-5-5-----------|

Intro Guitar 2
e|---------------------------------------------------|
B|-------------------repeat 3 times then end with----|
G|------5-4-5-4-5-4-----------------------7-5-4------|
D|------------------5---------------------------5----|
A|---------------------------------------------------|
E|---------------------------------------------------|

Verse Guitar 1 - listen for rhythm
e|-------------------------------------------------|
B|-------------------------------------------------|
G|-------------------------------------------------|
D|-3-3-3-3--3-3-3-3---5-5-5-5--7-7-7-7-------------|
A|-3-3-3-3--3-3-3-3---5-5-5-5--7-7-7-7-------------|
E|-1-1-1-1--1-1-1-1---3-3-3-3--5-5-5-5-------------|


Guitar 2 verse - joins in halfway and repeats
e|---7-7-7-8-------|--7-7-7-8------------10----------|
B|-----------10--8-|----------10--8--8-8----8--------|
G|-----------------|---------------------------------|
D|-----------------|---------------------------------|
A|-----------------|---------------------------------|
E|-----------------|---------------------------------|he does this variation near the end

Prechorus - Guitar 1-listen for strokes
e|--------------------------------------------------|
B|--------------------------------------------------|
G|---just repeats then ends with--------------------|
D|-3------------------------------5-----------------|
A|-3------------------------------5-----------------|
E|-1------------------------------3-----------------|
Prechorus - Guitar 2
e|---------------------------------------------------|
B|---------------------------------------------------|
G|-----------------keep repeating-til----------------|
D|--3-3--5--3-3--5-------------------5-5-5-----------|
A|--3-3-----3-3----------------------5-5-------------|
E|--1-1-----1-1----------------------3-3-------------|


Chorus - Guitar 1 - you decide which you like better
e|-----version A------|--------Version B--------------------|
B|--------------------|-------------------------------------|
G|--5---2-------------|---5---5---5-------------------------|
D|--5---2---5---3---5-|---5---5---5---3---5-----------------|
A|--3---0---5---3---5-|---3---0---x---3---5-----------------|
E|----------3---1---3-|-----------3---1---3-----------------|

Chorus - Guitar 2 - Im not too sure about this
e|--7-7-8-8-7-7-10-10--7-8-7-7--it just repeats------|
B|--8-8-8-8-8-8--8--8--8-8-7-7-----------------------|
G|---------------------------------------------------|
D|---------------------------------------------------|
A|---------------------------------------------------|
E|---------------------------------------------------|

Main Riff - Guitar 3 jumps in
e|---------------------------------------------------|
B|--5-3-5-3-5-3--repeat then end with 6-5-3----------|
G|--------------5~--------------------------5~-------|
D|---------------------------------------------------|
A|---------------------------------------------------|
E|---------------------------------------------------|

Guitar 1 repeats verse

Verse 2 - Guitar 2 - listen for timing, he goes a little longer than shown
e|------------------------------------------------------|
B|------------------------------------------------------|
G|--------12-------12-------12-------12-------9------9--|
D|--10-10----10-10----10-10----10-10----10-10---10-10---|
A|------------------------------------------------------|
E|------------------------------------------------------|
  pm....................................................

repeat prechorus once then chorus


Bridge - Guitar 1 - play whole thing twice
e|-------------------------------------------------|
B|-------------------------------------------------|
G|-------------------------------------------------|
D|--10-12-10-12-10-12-10-12--9-10-9-10-9-10-9-10---|
A|-0--0--0--0--0--0--0--0---0-0--0-0--0-0--0-0-----|
E|-------------------------------------------------|

e|---------------------------------------------------|
B|---------------------------------------------------|
G|---------------------------------------------------|
D|--10-12-10-12-10-12-10-12--12-14-12-14-12-14-12-14-|
A|-0--0--0--0--0--0--0--0---0--0--0--0--0--0--0--0---|
E|---------------------------------------------------|

Bridge Guitar - joins in second time
e|-------------------------------------------------|
B|-------------------------------------------------|
G|-------------------------------------------------|
D|--7-7----5-5----7-7----5-5-----------------------|
A|--7-7----5-5----7-7----5-5-----------------------|
E|--5-5----3-3----5-5----3-3-----------------------|
    pm.    pm.    pm.    pm..


Solo - Guitar 1 play over and over
e|--------7------8------10------8----7---8---7~----|
B|--10-10--10-10--10-10----10-10--10--10--10-------|
G|-------------------------------------------------|
D|-------------------------------------------------|
A|-------------------------------------------------|
E|-------------------------------------------------|

Guitar 2 just plays the chorus over the solo
then they both go into the chorus

end on
e|-gtr-1--|---7~--------------------------------------|
B|--------|-------------------------------------------|
G|--------|-------------------------------------------|
D|-3~-----|-------------------------------------------|
A|-3~-----|-------------------------------------------|
E|-1~-----|--gtr-2------------------------------------|

 I'll hope yall niggas like it, repin the YC
Добавлено: 15.06.2012
Другие материалы по этой песне:

Страница создана 12.05.2012
http://primanota.ru/home-grown/cross-my-heart-chords.htm
Привет, Гость.
Предлагаем пройти революционный курс по гитаре.
Подарок от PrimaNota.Ru, забирай!