PrimaNota.ru - самый крупный в мире бесплатный архив песенных текстов, аккордов, табулатур и нот


Home Grown - Bad News Blair - текст песни, таба, бас-таба, видео

Регистрация Запомнить меня
Войти через:  Facebook Google Twitter Vk Yandex Mail.ru

Home Grown - Bad News Blair - текст песни, таба, бас-таба, видео

Печатать
Просмотров: 151
/ = SLIDE UP   \ = SLIDE DOWN   h = HAMMER ON   p = PULL OFF

Tune guitar down a half-step

"You've been rejected..."
Guitar 1
e-|--1-----1-----1-3-1---1-----| p
B-|-----1-----1--------1----1--|  l   6 times
G-|----------------------------|   a
D-|----------------------------|    y
A-|----------------------------|
E-|----------------------------|

Guitar 2 played when Johnee sings: "Now you're locked in your room..."
e-|-----------------------|
B-|-----------------------|
G-|--10--9--7--5-5-5-5-5--|
D-|-----------------------|
A-|---8--7--5--3-3-3-3-3--|
E-|-----------------------|

"It's been a month and a half..."
e-|--------------------------------------------------------------|
B-|--------------------------------------------------------------|
G-|-----------------2--2-2--2-2-2--3--3-3--3-3-3-----------------|
D-|--3--3-3--3-3-3--2--2-2--2-2-2--3--3-3--3-3-3--5--5-5--5-5-5--|
A-|--3--3-3--3-3-3--0--0-0--0-0-0--1--1-1--1-1-1--3--3-3--3-3-3--|
E-|--1--1-1--1-1-1--------------------------------3--3-3--3-3-3--|

"She was kissing and hugging..."
e-|----------------------------------------------------------|
B-|----------------------------------------------------------|
G-|-----------------5--5-5--5-5-5--3--3-3--3-3-3--5-5-5-5-5--|
D-|--3--3-3--3-3-3--5--5-5--5-5-5--3--3-3--3-3-3--5-5-5-5-5--|
A-|--3--3-3--3-3-3--3--3-3--3-3-3--1--1-1--1-1-1--3-3-3-3-3--|
E-|--1--1-1--1-1-1-------------------------------------------|

"I know she broke your heart..."
e-|--------------------------------------------------------------|
B-|--------------------------------------------------------------|
G-|--3--3-----------5--5--------------------------5--5-----------|
D-|--3--3-----------5--5--5-3-2----3--3-----------5--5--2-3-2----|
A-|--1--1--1-0-1-2--3--3--------3--3--3-----------3--3--------3--|
E-|--------------------------------1--1--1-0-1-3-----------------|

"Well that's what you get..."
e-|--------------------|
B-|--------------------|
G-|--3--3-----------5--|
D-|--3--3-----------5--|
A-|--1--1--1-0-1-2--3--|
E-|--------------------|

Fill #1 (played twice)
e-|---------------------------------------------------------------------------------------|
B-|---------------------------------------------------------------------------------------|
G-|--10-10-10--------------10-10-10-----------10-10-10--------------12-12-12-14-15-15-15--|
D-|--10-10-10-12-10-10-10--10-10-10-10-8-8-8--10-10-10-12-10-10-10------------------------|
A-|---8--8--8-12-10-10-10---8--8--8-10-8-8-8---8--8--8-12-10-10-10--10-10-10-12-13-13-13--|
E-|-----------10--8--8--8------------8-6-6-6-----------10--8--8--8------------------------|

"Now she's calling your house..." (palm-muted)
e-|-------------------------------------------------------------------|
B-|-------------------------------------------------------------------|
G-|------------------2-2-2-2-2-2-2-2-3-3-3-3-3-3-3-3------------------|
D-|--3-3-3-3-3-3-3-3-2-2-2-2-2-2-2-2-3-3-3-3-3-3-3-3------------------|
A-|--3-3-3-3-3-3-3-3-0-0-0-0-0-0-0-0-1-1-1-1-1-1-1-1-----2-2-----2-2--|
E-|--1-1-1-1-1-1-1-1---------------------------------3-3-----3-3------|

"You're getting over-excited..." (palm-muted except for last 5 chords)
e-|-----------------------------------------------------------------|
B-|-----------------------------------------------------------------|
G-|------------------5-5-5-5-5-5-5-5-3-3-3-3-3-3-3-3-5--5--5--5--5--|
D-|--3-3-3-3-3-3-3-3-5-5-5-5-5-5-5-5-3-3-3-3-3-3-3-3-5--5--5--5--5--|
A-|--3-3-3-3-3-3-3-3-3-3-3-3-3-3-3-3-1-1-1-1-1-1-1-1-3--3--3--3--3--|
E-|--1-1-1-1-1-1-1-1------------------------------------------------|

"She says she wants you back..."
e-|--------------------------------------------------------------|
B-|--------------------------------------------------------------|
G-|--3--3-----------5--5--------------------------5--5-----------|
D-|--3--3-----------5--5--5-3-2----3--3-----------5--5--2-3-2----|
A-|--1--1--1-0-1-2--3--3--------3--3--3-----------3--3--------3--|
E-|--------------------------------1--1--1-0-1-3-----------------|

"To a girl that's gonna break your heart again."
e-|--------------------|
B-|--------------------|
G-|--3--3-----------5--|
D-|--3--3-----------5--|
A-|--1--1--1-0-1-2--3--|
E-|--------------------|

Fill #2
e-|-----------------------------|
B-|-----------------------------|
G-|--10-10-10-------------9-10--|
D-|--10-10-10-12-10-10-10-9-10--|
A-|---8--8--8-12-10-10-10-7--8--|
E-|-----------10--8--8--8-------|

"Just give it some thought..."
e-|---------------------------------------------------------------------|
B-|---------------------------------------------------------------------|
G-|--2--3-3-3-3-3-3-3-3-----------------5-5-5-5-5-5-5-5-7-7-7-7-7-7-7-7-|
D-|--2--3-3-3-3-3-3-3-3-3-3-3-3-3-3-3-3-5-5-5-5-5-5-5-5-7-7-7-7-7-7-7-7-|
A-|--0--1-1-1-1-1-1-1-1-3-3-3-3-3-3-3-3-3-3-3-3-3-3-3-3-5-5-5-5-5-5-5-5-|
E-|---------------------1-1-1-1-1-1-1-1---------------------------------|

"Think of all the..."
e-|---------------------------------------------------------------|
B-|---------------------------------------------------------------|
G-|--3-3-3-3-3-3-3-3-----------------5--5-5-5--5-5-5--5-5-5--5-5--|
D-|--3-3-3-3-3-3-3-3-3-3-3-3-3-3-3-3-5--5-5-5--5-5-5--5-5-5--5-5--|
A-|--1-1-1-1-1-1-1-1-3-3-3-3-3-3-3-3-3--3-3-3--3-3-3--3-3-3--3-3--|
E-|------------------1-1-1-1-1-1-1-1------------------------------|

"You should give up..."
e-|------------------------------------------------------------------|
B-|------------------------------------------------------------------|
G-|--3-3-3-3-3-3-3-3-----------------5-5-5-5-5-5-5-5-7-7-7-7-7-7-7-7-|
D-|--3-3-3-3-3-3-3-3-3-3-3-3-3-3-3-3-5-5-5-5-5-5-5-5-7-7-7-7-7-7-7-7-|
A-|--1-1-1-1-1-1-1-1-3-3-3-3-3-3-3-3-3-3-3-3-3-3-3-3-5-5-5-5-5-5-5-5-|
E-|------------------1-1-1-1-1-1-1-1---------------------------------|

"I know she's not the one..."
e-|---------------------------------------------------------------|
B-|---------------------------------------------------------------|
G-|--3-3-3-3-3-3-3-3-----------------5--5-5-5--5-5-5--5-5-5--5-5--|
D-|--3-3-3-3-3-3-3-3-3-3-3-3-3-3-3-3-5--5-5-5--5-5-5--5-5-5--5-5--|
A-|--1-1-1-1-1-1-1-1-3-3-3-3-3-3-3-3-3--3-3-3--3-3-3--3-3-3--3-3--|
E-|------------------1-1-1-1-1-1-1-1------------------------------|

Solo Part A (Guitar one play twice)
e-|----------------------------------------------------------|
B-|----------------------------------------------------------|
G-|-----------------5--5-5--5-5-5--3--3-3--3-3-3--5-5-5-5-5--|
D-|--3--3-3--3-3-3--5--5-5--5-5-5--3--3-3--3-3-3--5-5-5-5-5--|
A-|--3--3-3--3-3-3--3--3-3--3-3-3--1--1-1--1-1-1--3-3-3-3-3--|
E-|--1--1-1--1-1-1-------------------------------------------|

Solo Part A (Guitar two)
e-|--------------------------------------------|
B-|--1----3-1------1----3-1--------------------|
G-|-----2------2-3----2------2--3--2--0--------|
D-|--------------------------------------3--5--|
A-|--------------------------------------------|
E-|--------------------------------------------|

e-|------------------------------------------------|
B-|------1----3-1------1----3-1--------------------|
G-|--2-3----2------2-3----2------2--3--2--0--------|
D-|------------------------------------------3--5--|
A-|------------------------------------------------|
E-|------------------------------------------------|

Solo Part B (Guitar one)
e-|--------------------------------------------------------------|
B-|--------------------------------------------------------------|
G-|--3--3-----------5--5--------------------------5--5-----------|
D-|--3--3-----------5--5--5-3-2----3--3-----------5--5--2-3-2----|
A-|--1--1--1-0-1-2--3--3--------3--3--3-----------3--3--------3--|
E-|--------------------------------1--1--1-0-1-3-----------------|

e-|--------------------|
B-|--------------------|
G-|--3--3-----------5--|
D-|--3--3-----------5--|
A-|--1--1--1-0-1-2--3--|
E-|--------------------|

Solo Part B (Guitar two)
e-|----------------------------------------------------|
B-|----------------------------------------------------|
G-|--10/12-12-12-12\10-10-10--10/12-12-12-12\10-10-10--|
D-|----------------------------------------------------|
A-|---8/10-10-10-10\-8--8--8---8/10-10-10-10\-8--8--8--|
E-|----------------------------------------------------|

e-|------------------------------------------------------|
B-|------------------------------------------------------|
G-|--10/12-12-12--12/14-14-14--14/15-15-15--15\14-14-14--|
D-|------------------------------------------------------|
A-|---8/10-10-10--10/12-12-12--12/13-13-13--13\12-12-12--|
E-|------------------------------------------------------|

e-|------------------------|
B-|------------------------|
G-|--10/12-12-12-10/12/14--|
D-|------------------------|
A-|---8/10-10-10--8/10/12--|
E-|------------------------|

Play Fill #1 twice

"She's been around the block..."
e-|----------------------|
B-|----------------------|
G-|-------2----3---------|
D-|--3----2----3----5----|
A-|--3----0----1----5----|
E-|--1--------------3----|

"It's not the end..." (guitar one)
e-|----------------------------|
B-|----------------------------|
G-|-------5----3----5-5-5-5-5--|
D-|--3----5----3----5-5-5-5-5--|
A-|--3----3----1----3-3-3-3-3--|
E-|--1-------------------------|

"It's not the end..." (guitar two)
e-|--1-----1-----1-3-1---1-----1-----1----------------|
B-|-----1-----1--------1----1-----1-----1-------------|
G-|----------------------------------------5-5-5-5-5--|
D-|----------------------------------------5-5-5-5-5--|
A-|----------------------------------------3-3-3-3-3--|
E-|---------------------------------------------------|

"She says she wants you back..."
e-|--------------------------------------------------------------|
B-|--------------------------------------------------------------|
G-|--3--3-----------5--5--------------------------5--5-----------|
D-|--3--3-----------5--5--5-3-2----3--3-----------5--5--2-3-2----|
A-|--1--1--1-0-1-2--3--3--------3--3--3-----------3--3--------3--|
E-|--------------------------------1--1--1-0-1-3-----------------|

"To a girl that's gonna break your heart again."
e-|--------------------|
B-|--------------------|
G-|--3--3-----------5--|
D-|--3--3-----------5--|
A-|--1--1--1-0-1-2--3--|
E-|--------------------|

Play Fill #2

End

1
Добавлено: 01.03.2016
Другие материалы по этой песне:
  • Аккорды и текст

Страница создана 22.03.2012
http://primanota.ru/home-grown/bad-news-blair-chords.htm
Привет, Гость.
Предлагаем пройти революционный курс по гитаре.
Подарок от PrimaNota.Ru, забирай!