PrimaNota.ru - самый крупный в мире бесплатный архив песенных текстов, аккордов, табулатур и нот


Home Grown - Alternative Girl - текст песни, таба, бас-таба, видео

Регистрация Запомнить меня
Войти через:  Facebook Google Twitter Vk Yandex Mail.ru

Home Grown - Alternative Girl - текст песни, таба, бас-таба, видео

Печатать
Просмотров: 142
artist: home grown
song: alternative girl
album: thats business
tabbed by: dangerousdew@hotmail.com
a pretty acurate tab id say, the only thing up with it may be the strumming, just give 
a try and see for yourself, yall enjoy now ya hear

intro:
e|3333----------------------------------|x8
B|3333----------------------------------|
G|4444--555--777------------------------|
D|5555--555--777------------------------|
A|------333--555------------------------|
E|--------------------------------------|x8


e|3333---8-8-8--101010------------------|x8
B|3333---8-8-8--101010------------------|
G|4444---9-9-9--111111------------------|
D|5555--101010--121212------------------|
A|--------------------------------------|
E|--------------------------------------|x8

chorus:
e|--------------------------------------|x4
B|--------------------------------------|
G|555555------------555555--77777777----|
D|555555--55555555--555555--77777777----|
A|333333--55555555--333333--55555555----|
E|--------33333333----------------------|x4


e|3333----------------------------------|x8
B|3333----------------------------------|
G|4444--555--777------------------------|
D|5555--555--777------------------------|
A|------333--555------------------------|
E|--------------------------------------|x8


e|3333---8-8-8--101010------------------|x8
B|3333---8-8-8--101010------------------|
G|4444---9-9-9--111111------------------|
D|5555--101010--121212------------------|
A|--------------------------------------|
E|--------------------------------------|x8

chorus:
e|--------------------------------------|x4
B|--------------------------------------|
G|555555------------555555--77777777----|
D|555555--55555555--555555--77777777----|
A|333333--55555555--333333--55555555----|
E|--------33333333----------------------|x4


e|------------------------------------------------------|x2
B|------------------------------------------------------|
G|------777777--------777777--444---------------777777--|
D|5555--777777--5555--777777--222--55555--5555--777777--|
A|5555--555555--5555--555555-------33232--5555--555555--|
E|3333----------3333----------------------3333----------|x2


e|------------------3-----------------------------------|x4
B|------------------3-----------------------------------|
G|-----555--45------4-----------------------------------|
D|222--555--45---5555-----------------------------------|
A|222--333--23---5555-----------------------------------|
E|000------------3333-----------------------------------|x4

solo:
e|------------------------------------------------------|
B|------------------------------3-----------------------|
G|----------------2-4h5h4-2-4-5-----4-----5---5-4-------|
D|----------2-4-5-----------------5---5h7---7-----------|
A|----2-3-5---------------------------------------------|
E|3-5---------------------------------------------------|


e|------------------------------------8-7---------------|
B|8---8-10-----10---8---8-10-----10-------8-------------|
G|--7------7-7----7---7------7-7----7-------7-5-4-0-2---|
D|------------------------------------------------------|
A|------------------------------------------------------|
E|------------------------------------------------------|


e|------3333------------3333----------------------------|x8
B|------3333------------3333----------------------------|
G|------4444--555--777--4444--555---777-----------------|
D|5--5--5555--555--777--5555--555---777-----------------|
A|5--5--------333--555--------333---555-----------------|
E|3--3--------------------------------------------------|x8

e|----------------------|x8
B|----------------------|
G|----------5555--7777--|
D|55555555--5555--7777--|
A|55555555--3333--5555--|
E|33333333--------------|x8

outro:(repeat and end on)
e|----------------------|x8
B|----------------------|
G|----------------------|
D|5---------------------|
A|5---------------------|
E|3---------------------|
Добавлено: 07.04.2012
Другие материалы по этой песне:

Страница создана 29.03.2012
http://primanota.ru/home-grown/alternative-girl-chords.htm
Привет, Гость.
Предлагаем пройти революционный курс по гитаре.
Подарок от PrimaNota.Ru, забирай!