PrimaNota.ru - самый крупный в мире бесплатный архив песенных текстов, аккордов, табулатур и нот


Home Grown - All That You Have - текст песни, таба, бас-таба, видео

Регистрация Запомнить меня
Войти через:  Facebook Google Twitter Vk Yandex Mail.ru

Home Grown - All That You Have - текст песни, таба, бас-таба, видео

Печатать
Просмотров: 138
Уроки эстрадного вокала в Санкт-Петербурге
Created by Me


e| -----------------------------|
B| -----------------------------|
G| --5/12---10\9/10----12\10\8--|
D| -----------------------------|
A| --3/10----8\7/-8----10\-8\7--|
E| -----------------------------|

RIFF 1 (repeat as many times needed)

e| -----------------------------|
B| -----------------------------|
G| -----------------------------|
D| ---2-5--0-2---------3/5-3-2--|
A| -3----------3---0-3----------|
E| --------------1--------------|


VERSE (these are the chords used in the verse, you obviosly play more than once)

e| ---8----5----7----|
B| ---8----6----8----|
G| ---9----5----7----|
D| --10----7----9----|
A| ------------------|
E| ------------------|


Guitar 2 plays during Second verse

e| -----------------------------------|
B| -----------------------------------|
G| --9-10-12--9--10-7--9-10-12-10--7--|
D| -----------------------------------|
A| --7--8-10--7--8--5--7--8-10--8--5--|
E| -----------------------------------|


BRIDGE "So when you're feeling down..."

e| --------------------------------------|
B| --------------------------------------|
G| -9---7------------------10-12\11\9\7--|
D| -9-7-7--5----5-3-2---7--10------------|
A| -7-7-5--5----5-3-2---7---8-10\-8\7\5--|
E| ---5----3----3-1-0---5----------------|


END

e| ------------------------------------------------|
B| ------------------------------------------------|
G| --5-5/7/9-9/11/12---17-17-17-17-17-17-17-17-17--|
D| --------------------17-17-17-17-17-17-17-17-17--|
A| --3-3/5/7-7/-8/10---15-15-15-15-15-15-15-15-15--|
E| ------------------------------------------------|
Добавлено: 10.09.2015
Другие материалы по этой песне:
  • Аккорды и текст

Страница создана 07.03.2012
http://primanota.ru/home-grown/all-that-you-have-chords.htm
Привет, Гость.
Предлагаем пройти революционный курс по гитаре.
Подарок от PrimaNota.Ru, забирай!