PrimaNota.ru - самый крупный в мире бесплатный архив песенных текстов, аккордов, табулатур и нот


Hombres G - Marta Tiene Un Marcapasos - таба, видео

Регистрация Запомнить меня
Войти через:  Facebook Google Twitter Vk Yandex Mail.ru

Hombres G - Marta Tiene Un Marcapasos - таба, видео

Печатать
Просмотров: 121
Авторы: David Summers

e----------------------------------------------------------|
B----------------------------------------------------------|
G------6-6-6-6-6-6-6-6-6/7-6-6----------------4/6--4-------|
D-------------------------------7-7-7----4---7-------7-7-7-|
A-----------------------------------7----------------------|
E----------------------------------------------------------|


e-----------------------------------------------------|
B---10----10-10-----10----10------10-10-----10----10--|
G-11----11-------11----11------11--------11-----11----|
D-----------------------------------------------------|
A-----------------------------------------------------|
E-----------------------------------------------------|


e---------------------------------------------|
B--14-14-14-14-14-14-14-14----12-12----10-----|
G---------------------------------------------|
D---------------------------------------------|
A---------------------------------------------|
E---------------------------------------------|

e--14-14-14-14-14-14-14-14-------17--14----------14--|
B--14-14-14-14-14-14-14-14--14-------14------17--14--|x2
G----------------------------------------------------|
D----------------------------------------------------|
A----------------------------------------------------|
E----------------------------------------------------|


e--------------------------------------------------|
B--------------------------------------------------|
G--------------------------------------------------|
D---9/11--9----------------------------------------|
A-----------12-----9------12-----------------------|
E--------------12----------------------------------|


the last part tienen que repetir un par de veces.
Добавлено: 07.06.2012
Другие материалы по этой песне:

Страница создана 07.06.2012
http://primanota.ru/hombres-g/marta-tiene-un-marcapasos-chords.htm
Привет, Гость.
Предлагаем пройти революционный курс по гитаре.
Подарок от PrimaNota.Ru, забирай!