PrimaNota.ru - самый крупный в мире бесплатный архив песенных текстов, аккордов, табулатур и нот


Hombres G - Ella Es Una Mujer - текст песни, бас-таба, видео

Регистрация Запомнить меня
Войти через:  Facebook Google Twitter Vk Yandex Mail.ru

Hombres G - Ella Es Una Mujer - текст песни, бас-таба, видео

Печатать
Просмотров: 159
El bajo entra cuando dice 'Ella a veces se enfada'

Este slide es cuando entra, e inmediatamente despues
va el verso
|---------|
|---------|
|---------|
|---/3----|

    Verso
|-----------------------------------------------|
|-----------------------------------------------|
|---5--7---3-2-0----5--7----3---3--5--7---3-2-0-|
|-3--------------3---------------3--------------|

'y sin mas explicacion...'
|----------|
|----------|
|----5-----|
|--3----3--|

   'Se derrite en mi piel...'
Pre-coro
|-------------------------------------------|
|-------------------------------------------|
|------7--------------2--7-9----7-----5-4-5-|
|---5-----5------5-3---------5-----5--------|

El coro es fácil, el primer 5-7-5 es rápido, mientras dice 
'Ella es una' y lo demas es junto el platillo de la batería.

   'Ella es una mujer...'
Coro
|-----------------------------------------------|
|-----7-----------------------------------------|
|---5---5---3--5-------3--5-----3--2--7--3--5---|
|-----------------3----------3-----------------3|

Luego tocas el verso durante el solo de guitarra, y 
durante el verso, despues la pequeña diferencia cuando dice 
'porq sabe q yo aún la quiero' luego el coro 2 
veces y terminas con el verso y la terminacion es asi.

|---------|
|---------|
|----5----|
|-7-----7-|
Добавлено: 22.02.2012
Другие материалы по этой песне:
  • Аккорды и текст

Страница создана 22.02.2012
http://primanota.ru/hombres-g/ella-es-una-mujer-chords.htm
Привет, Гость.
Предлагаем пройти революционный курс по гитаре.
Подарок от PrimaNota.Ru, забирай!