PrimaNota.ru - самый крупный в мире бесплатный архив песенных текстов, аккордов, табулатур и нот


The Holydrug Couple - French Movie Theme - таба, видео

Регистрация Запомнить меня
Войти через:  Facebook Google Twitter Vk Yandex Mail.ru

The Holydrug Couple - French Movie Theme - таба, видео

Печатать
Просмотров: 96
Уроки эстрадного вокала в Санкт-Петербурге
Авторы: Ives Sepulveda

-------------------------------------------------------------------------------
                       French Movie Theme - The Holydrug Couple
-------------------------------------------------------------------------------
Tabbed by: Ron Hambone


Tuning: Standard

e|-----------------------------------------------------------------------------------|
B|--------10------10------10-----10------10--12-10------10------10--12-10------10----|
G|----12------12------12------12-----12-------------12------12-------------12--------|
D|-----------------------------------------------------------------------------------|
A|-----------------------------------------------------------------------------------|
E|-----------------------------------------------------------------------------------|

e|--------------------------------------------------------------------|
B|-------10-12-10----10----10-12-10----10-----------------------------|
G|----12----------12----12----------12-----12--10--12-10-9--7--9-7----| Repeat 2x
D|--------------------------------------------------------------------|
A|--------------------------------------------------------------------|
E|--------------------------------------------------------------------|

e|------8--10-------8--10-------8--10--------8--10-------8--10-15-10-------8--10-------8--10-15-10-------8--10|
B|---10----------10----------10-----------10----------10----------------10----------10----------------10------|
G|12----------12----------12-----------12----------12----------------12----------12----------------12---------|
D|------------------------------------------------------------------------------------------------------------|
A|------------------------------------------------------------------------------------------------------------|
E|------------------------------------------------------------------------------------------------------------|

e|----13--12--10--8--13--12--10--8--13--12--10--8--6--5--3--0----|
B|---------------------------------------------------------------|
G|---------------------------------------------------------------| Repeat 2x
D|---------------------------------------------------------------|
A|---------------------------------------------------------------|
E|---------------------------------------------------------------|

e|-------------------------------------------------------|
B|-------------------------------------------------------|
G|-------------------------------------------------------| Repeat 2x
D|-------7/9-7--5-7-5-----5/7-5--3-5-3-------------------|
A|----5----------------3----------------1----1----1-3----|
E|-----------------------------------------4----4--------|

e|-------------------------------3h5--3h5p3---------------------------------------------------|
B|-----------------------5-5/7--------------5---3-5-7-5--7--9b10-8---5--6--7--6-5-6-5--3-5----|
G|-----------5--5/7--5-7----------------------------------------------------------------------|
D|-------5-7----------------------------------------------------------------------------------|
A|----5---------------------------------------------------------------------------------------|
E|--------------------------------------------------------------------------------------------|

e|----14h15p14-12-14-12----12-----------------|
B|----------------------15-----15-13-12-13----|
G|--------------------------------------------| Repeat 3x
D|--------------------------------------------|
A|--------------------------------------------|
E|--------------------------------------------|

e|-----------------------------------------|
B|----13b14br13b14br13b14br13b14br13b14----|
G|-----------------------------------------|
D|-----------------------------------------|
A|-----------------------------------------|
E|-----------------------------------------|

e|----14h15p14-12-14-12----12-----------------|
B|----------------------15-----15-13-12-13----|
G|--------------------------------------------| Repeat 3x
D|--------------------------------------------|
A|--------------------------------------------|
E|--------------------------------------------|

e|-----------------------------------------|
B|----13b14br13b14br13b14br13b14br13b14----|
G|-----------------------------------------|
D|-----------------------------------------|
A|-----------------------------------------|
E|-----------------------------------------|

e|-------------------------------------------------------------|
B|-------------------------------------------------------------|
G|-------------------------------------------------------------| 
D|-------7/9-7--5-7-5-----5/7-5--3-5-3-------------------------|
A|----5----------------3----------------1----1----1-3-----5----|
E|-----------------------------------------4----4--------------|

************************************

| /   slide up
| \   slide down
| h   hammer-on
| p   pull-off
| ~   vibrato
| +   harmonic
| x   Mute note
| b   Bend
| pb  Pre-bend
| br  Bend release
| pbr Pre-bend release
| brb Bend release bend

************************************
Добавлено: 10.12.2015
Другие материалы по этой песне:
  • Аккорды и текст

Страница создана 10.12.2015
http://primanota.ru/holydrug-couple/french-movie-theme-chords.htm
Привет, Гость.
Предлагаем пройти революционный курс по гитаре.
Подарок от PrimaNota.Ru, забирай!