PrimaNota.ru - самый крупный в мире бесплатный архив песенных текстов, аккордов, табулатур и нот


The Holydrug Couple - Follow Your Way - таба, видео

Регистрация Запомнить меня
Войти через:  Facebook Google Twitter Vk Yandex Mail.ru

The Holydrug Couple - Follow Your Way - таба, видео

Печатать
Просмотров: 124
Уроки эстрадного вокала в Санкт-Петербурге
Авторы: Ives Sepulveda

The Holydrug Couple - Follow Your Way


INTRO

Ebmaj7      \
Fmaj7  Em7  / x4


VERSE 1
Ebmaj7     Fmaj7 Em7
Far, we'll never give up 
Ebmaj7      Fmaj7       Em7
Change, the things that worry


CHORUS
Gm7 Am7  F             Gm7  Am7 F
Far,     I follow your way 
(Let's get too) 
Gm7 Am7  F             Gm7  Am7 F
Far,     I follow your way


SOLO (over verse chords)

e|---------------------------------------------------------------------------------------------------|
B|---------------------------------------------------------------------------------------------------|
G|------------5--------------------------------------------5-----5-7---7br-7--7--5h7-5---5-----------|
D|-5----5-7-------7---5---7---5-\2----------7--5h7-5h7-5-7-----7-----------------------7---7-5-------|
A|----------------------------------5-\3-0-----------------------------------------------------7-5---|
E|---------------------------------------------------------------------------------------------------|


VERSE 2
Ebmaj7       Fmaj7    Em7
Everytime you want to come too
Ebmaj7          Fmaj7    Em7
Here I feel like someone say goodbye
Ebmaj7   Fmaj7 Em7
                  Goodbye
Ebmaj7   Fmaj7 Em7 


CHORUS
Gm7 Am7  F             Gm7  Am7 F
Far,     I follow your way 
(Let's get too) 
Gm7 Am7  F             Gm7  Am7 F
Far,     I follow your way


BREAK/SOLO

Ebmaj7      Cmaj7    \
Ebmaj7      Gm7  Am7 / x2 (these chords continue when the solo starts)

e|---------------------------------------------------------------------------------------------------|
B|---------------------------------------------------------------------------------------------------|
G|-----------------------------------3h5p3-------------------------------------3h5p3-----------------|
D|-5----------5---------3-5----------------5--------------0-3----5p3h5--5p3h5--------5--5---------5--|
A|------------------------------------------------------3--------------------------------------------|
E|---------------------------------------------------------------------------------------------------|

e|---------------------------------------------------------------------------------------------------|
B|---------------------------------------------------------------------------------------------------|
G|-------------------------3h5p3----------------------------12-10-9-------------------/12--12br------|
D|---0-3-----5p3h5--5p3h5--------5--5-3h5--3h5p3h5-5br--------------12-10-9--------------------------|
A|-3------------------------------------------------------------------------12b-10-------------------|
E|---------------------------------------------------------------------------------------------------|

e|---------------------------------------------------|
B|---------------------------------------------------|
G|12-10-9-------------------/12-----10h12p10---------|
D|--------12-10-9---------------------------12p10----|
A|----------------12b-10-----------------------------|
E|---------------------------------------------------|


OUTRO CHORUS
Gm7 Am7  F             Gm7  Am7 F
Far,     I follow your way 
(Let's get too) 
Gm7 Am7  F             Gm7  Am7 F
Far,     I follow your way
(Let's get too) 
Gm7 Am7  F             Gm7  Am7 F
Far,    
(Let's get too) 
Gm7 Am7  F             Gm7  Am7 F
Far,     I follow your way



end on Ebmaj7
Добавлено: 10.12.2015
Другие материалы по этой песне:
  • Аккорды и текст

Страница создана 10.12.2015
http://primanota.ru/holydrug-couple/follow-your-way-chords.htm
Привет, Гость.
Предлагаем пройти революционный курс по гитаре.
Подарок от PrimaNota.Ru, забирай!