PrimaNota.ru - самый крупный в мире бесплатный архив песенных текстов, аккордов, табулатур и нот


Holychild - U Make Me Sick - аккорды и текст, видео

Регистрация Запомнить меня
Войти через:  Facebook Google Twitter Vk Yandex Mail.ru

Holychild - U Make Me Sick - аккорды и текст, видео

Печатать
Просмотров: 63
U Make Me Sick
Holychild
capo 1


G
I know i'm a weirdo but you like the way i think
G
Faking it forever but we're honest as we sing
           Am
Won't you take me out for lunch?
           Am
Won't you spoil me undone?

G
Self conscious and guilty walking tired through the streets
G
I need your attention need to know just what you see
          Am
Won't you eat me out at lunch?
          Am
Yeah just let me go i'm done

G
You make me so sick
                         Am
When i see you standing there
                        Am  
Hold me closer make me care
G
You make me so sick
                         Am
When i see you standing there
                              Am
Won't you leave me then i'll care


G
I know i'm a loser you don't have to play those games
G
Treat me all the same, you never seem to call my name
            Am
I know you need me out at night
            Am
I know you smile when i cry

G
Maybe i'm a sinner but i don't know all the ways
G
Keep me all together tie my hands up when i say
          Am
Won't you eat me out at lunch?
          Am
Yeah just leave me then i'll punch

G
You make me so sick
                         Am
When i see you standing there
                        Am
Hold me closer make me care
G
You make me so sick
                         Am
When i see you standing there
                         Am
Won't you leave me then i'll care


riff:

e|---3-3-3-3-2-2-2-2-0-2-0---------------3-3-3-3-2-2-2-2-0-2-0----------------------------------|
B|-------------------------3-0-0-0-0---------------------------3-0-0-0-3-0-1-1-1-1--------------|
G|----------------------------------------------------------------------------------2-----------|
D|----------------------------------------------------------------------------------------------|
A|----------------------------------------------------------------------------------------------|
E|----------------------------------------------------------------------------------------------|

e|----------------------------------------------------------------------------------------------|
B|--0-1-1-1-1-----------------------------------------------------------------------------------|
G|------------2---------------------------------------------------------------------------------|
D|----------------------------------------------------------------------------------------------|
A|----------------------------------------------------------------------------------------------|
E|----------------------------------------------------------------------------------------------|

repeat riff one time


G
You make me so sick
                         Am
When i see you standing there
                         Am
Hold me closer make me care
G
You make me so sick
                         Am
When i see you standing there
                             Am
Won't you leave me then i'll care

end on G
Добавлено: 08.12.2015
Другие материалы по этой песне:
  • Аккорды и текст

Страница создана 08.12.2015
http://primanota.ru/holychild/u-make-me-sick-chords.htm
Привет, Гость.
Предлагаем пройти революционный курс по гитаре.
Подарок от PrimaNota.Ru, забирай!