PrimaNota.ru - самый крупный в мире бесплатный архив песенных текстов, аккордов, табулатур и нот


Holy Wave - Do You Feel It - таба, видео

Регистрация Запомнить меня
Войти через:  Facebook Google Twitter Vk Yandex Mail.ru

Holy Wave - Do You Feel It - таба, видео

Печатать
Просмотров: 149
Уроки эстрадного вокала в Санкт-Петербурге
-------------------------------------------------------------------------------
                         Do You Feel It? - Holy Wave
-------------------------------------------------------------------------------
Tabbed by: Ron Hambone


Tuning: Standard

e|---------------------------------------------|
B|---------------------------------------------|
G|------6---6---4---4---2---2-----4---4---4----| Repeat 4x
D|----7---7---6---6---4---4---4/6---6---6------|
A|---------------------------------------------|
E|---------------------------------------------|

e|----2-2-2-4-4-4-5-5-5-4-4-4--2-2-2-4-4-4-5-5-5-----7---7--------|
B|-----------------------------------------------7/9---9---7/9----|
G|----------------------------------------------------------------|
D|----------------------------------------------------------------|
A|----------------------------------------------------------------|
E|----------------------------------------------------------------|

e|----2-2-2-4-4-4-5-5-5-4-2-4--2-2-2-4-4-4-5-5-5-----7---7-----7----|
B|-----------------------------------------------7/9---9----7/9-----|
G|------------------------------------------------------------------|
D|------------------------------------------------------------------|
A|------------------------------------------------------------------|
E|------------------------------------------------------------------|

e|---------------------------------------------|
B|---------------------------------------------|
G|------6---6---4---4---2---2-----4---4---4----| Repeat 2x
D|----7---7---6---6---4---4---4/6---6---6------|
A|---------------------------------------------|
E|---------------------------------------------|


e|------------------------------------------------------------------------------------------------------------|
B|------------------------------------------------------------------------------------------------------------|
G|--8---8---8---8---8-----9----9----9----9----9-------11----11----11----11----11-------13----13----13----13---|
D|9---9---9---9---9--9/11---11---11---11---11---11/13----13----13----13----13----13/14----14----14----14----14|
A|------------------------------------------------------------------------------------------------------------|
E|------------------------------------------------------------------------------------------------------------|

e|---------------------------------------------|
B|---------------------------------------------|
G|------6---6---4---4---2---2-----4---4---4----| Repeat 4x
D|----7---7---6---6---4---4---4/6---6---6------|
A|---------------------------------------------|
E|---------------------------------------------|

e|----2-2-2-4-4-4-5-5-5-4-4-4--2-2-2-4-4-4-5-5-5-----7---7--------|
B|-----------------------------------------------7/9---9---7/9----|
G|----------------------------------------------------------------| Repeat 2x
D|----------------------------------------------------------------|
A|----------------------------------------------------------------|
E|----------------------------------------------------------------|

e|---------------------------------------------|
B|---------------------------------------------|
G|------6---6---4---4---2---2-----4---4---4----| Repeat 6x
D|----7---7---6---6---4---4---4/6---6---6------|
A|---------------------------------------------|
E|---------------------------------------------|

e|-----------------------------------------------|
B|-----------------------------------------------|
G|---8---8---8---8---8-----9----9----9----9----9-|
D|-9---9---9---9---9--9/11---11---11---11---11---|
A|-----------------------------------------------|
E|-----------------------------------------------|

e|---------------------------------------------------------------------------------------------------|
B|------------------------------------------------------------------------10----10----10----10----10-|
G|-------11----11----11----11----11-------13----13----13----13----13-9/11----11----11----11----11----|
D|-11/13----13----13----13----13----13/14----14----14----14----14------------------------------------|
A|---------------------------------------------------------------------------------------------------|
E|---------------------------------------------------------------------------------------------------|

e|---------------------------------------------------------------------------------------------|
B|-------12----12----12----12----12-------14----14----14----14----14-------16----16----16------|
G|-11/13----13----13----13----13----13/14----14----14----14----14----14/16----16----16----16---|
D|---------------------------------------------------------------------------------------------|
A|---------------------------------------------------------------------------------------------|
E|---------------------------------------------------------------------------------------------|

e|---------------------------------------------|
B|---------------------------------------------|
G|------6---6---4---4---2---2-----4---4---4----| Repeat 4x
D|----7---7---6---6---4---4---4/6---6---6------|
A|---------------------------------------------|
E|---------------------------------------------|

e|-----|
B|-----|
G|--4--| 
D|--6--|
A|-----|
E|-----|



************************************

| /   slide up
| \   slide down
| h   hammer-on
| p   pull-off
| ~   vibrato
| +   harmonic
| x   Mute note
| b   Bend
| pb  Pre-bend
| br  Bend release
| pbr Pre-bend release
| brb Bend release bend

************************************
Добавлено: 26.12.2015
Другие материалы по этой песне:
  • Аккорды и текст

Страница создана 26.12.2015
http://primanota.ru/holy-wave/do-you-feel-it-chords.htm
Привет, Гость.
Предлагаем пройти революционный курс по гитаре.
Подарок от PrimaNota.Ru, забирай!