PrimaNota.ru - самый крупный в мире бесплатный архив песенных текстов, аккордов, табулатур и нот


Holy Sons - Saccharine Trust - таба, видео

Регистрация Запомнить меня
Войти через:  Facebook Google Twitter Vk Yandex Mail.ru

Holy Sons - Saccharine Trust - таба, видео

Печатать
Просмотров: 74
Авторы: Emil Amos

Saccharine Trust - Holy Sons
From Decline of the West Vol 1

Intro
E  :-----------------------|-------------------------|--------------------|
B  :10-----10-----10-----10|10-10---10---9-------9-9-|13---12---10----10--|
G  :-----------------------|-------------------------|--------------------|
D  :-----------------------|-------------------------|--------------------|
A  :-----------------------|-------------------------|--------------------|
E  :-----------------------|-------------------------|--------------------|

E  :----------------------|----------------|--------------------|
B  :10-5----5-h6-p5---3---|5---6---8---6-5-|3-5-1--5------------|
G  :----------------------|----------------|----------4--4-h5-p4|
D  :----------------------|----------------|--------------------|
A  :----------------------|----------------|--------------------|
E  :----------------------|----------------|--------------------|

E  :----------------|----------------|--------------3----|-3------3--------|
B  :------------3--5|--8--5---8----5-|--8--10---3-5---3-5|----3-5----------|
G  :--2--4--5-------|----------------|-------------------|-----------0---2-|
D  :----------------|----------------|-------------------|-----------------|
A  :----------------|----------------|-------------------|-----------------|
E  :----------------|----------------|-------------------|-----------------|


E  :-----------------|----------------|
B  :------3---3^-----|----------------|
G  :--5------------5-|-2--------------|
D  :-----------------|----------------|
A  :-----------------|----------------|
E  :-----------------|----------------|


C                                    G
The sun is up and im trailing down a twisted gift that Im leaving out
Am           G     F
and its only on my mind
C
Sick with dust well on my way
C
I refuse that throne yet another day
Am           G     F
and its only on my mind


Well I guess that I just
     F                       E
E  :-----------------------|-------------------------|
B  :-----------------------|-------------------------|
G  :------------2----------|---------------1---------|
D  :-----3-----------3-----|---------2---------2-----|
A  :---3------3----3---3---|------2----2-----2-----2-|
E  :-1---------------------|-0-----------------------|
     lost         my          mind       Coming       
     
    Am
E  :-----------------------|-------------------------|
B  :------------1----------|---------------1---------|
G  :-----2-----------2-----|---------2---------2-----|
D  :---2------2----2---2---|------2----2-----2-----2-|
A  :-0---------------------|-0-----------------------|
E  :-----------------------|-------------------------|
    into this   sobering kind    And now that I have 

E  :-----------------------|-------------------------|
B  :-----------------------|-------------------------|
G  :------------2----------|---------------1---------|
D  :-----3-----------3-----|---------2---------2-----|
A  :---3------3----3---3---|------2----2-----2-----2-|
E  :-1---------------------|-0-----------------------|
      wrote       and             I write   

E  :-----------------------|-------------------------|
B  :------------1----------|---------------1---------|
G  :-----2-----------2-----|---------2---------2-----|
D  :---2------2----2---2---|------2----2-----2-----2-|
A  :-0---------------------|-0-----------------------|
E  :-----------------------|-------------------------|
   about those old dusty days and their too many ways to 

E  :-----------------------|-------------------------|
B  :-----------------------|-------------------------|
G  :------------2----------|---------------1---------|
D  :-----3-----------3-----|---------2---------2-----|
A  :---3------3----3---3---|------2----2-----2-----2-|
E  :-1---------------------|-0-----------------------|

   be disastisfied 

(duck duck duck and cover)

C                              C
Praise and curse my memory its something thats still making me
Am           G     F
and its only on my mind
C                                  C
Curse this ____ I'm holding tight,, a criminal needs a haven 
Am   G      F
tonight
only on my mind

Well I guess that ill 
E  :-----------------------|-------------------------|
B  :-----------------------|-------------------------|
G  :------------2----------|---------------1---------|
D  :-----3-----------3-----|---------2---------2-----|
A  :---3------3----3---3---|------2----2-----2-----2-|
E  :-1---------------------|-0-----------------------|
     descend       to this tune       like a fucking 

E  :-----------------------|-------------------------|
B  :------------1----------|---------------1---------|
G  :-----2-----------2-----|---------2---------2-----|
D  :---2------2----2---2---|------2----2-----2-----2-|
A  :-0---------------------|-0-----------------------|
E  :-----------------------|-------------------------|
    firework over the      moon            so you can 

E  :-----------------------|-------------------------|
B  :-----------------------|-------------------------|
G  :------------2----------|---------------1---------|
D  :-----3-----------3-----|---------2---------2-----|
A  :---3------3----3---3---|------2----2-----2-----2-|
E  :-1---------------------|-0-----------------------|
   salute                me down           and forever 

E  :-----------------------|-------------------------|
B  :------------1----------|---------------1---------|
G  :-----2-----------2-----|---------2---------2-----|
D  :---2------2----2---2---|------2----2-----2-----2-|
A  :-0---------------------|-0-----------------------|
E  :-----------------------|-------------------------|
     gaze upon this gold plated frown


so just remember me
Am      F                E
now you cant remember me.
Am      F                E
now you cant remember me.
Am      F                E
now you cant remember me.


www.holysons.com
Добавлено: 09.07.2013
Другие материалы по этой песне:
  • Аккорды и текст

Страница создана 09.07.2013
http://primanota.ru/holy-sons/saccharine-trust-chords.htm
Привет, Гость.
Предлагаем пройти революционный курс по гитаре.
Подарок от PrimaNota.Ru, забирай!