PrimaNota.ru - самый крупный в мире бесплатный архив песенных текстов, аккордов, табулатур и нот


Holy Modal Rounders - Euphoria - таба, видео

Регистрация Запомнить меня
Войти через:  Facebook Google Twitter Vk Yandex Mail.ru

Holy Modal Rounders - Euphoria - таба, видео

Печатать
Просмотров: 103
Уроки эстрадного вокала в Санкт-Петербурге
Euphoria

written by: George Remaily
from Holy Modal Rounders album 1 & 2
tabbed by Adrian Dumchus (dumchusa@aol.com)

played in Standard Tuning capo 2nd (E A D G B E from low to high)

(All three verses use the pattern below. The easiest way to play it is
to fingerpick it using the middle finger on the high E, the index finger
on the high B, and the thumb on the E, A, D and G)

Capo on 2nd

    G                                   E                 A       D
E-|---3--3-3-3-3----|---3-------3-----|--0---0----0--0--|---0--0----2--2--|
B-|---0--0-0-0-0----|---0-------0-----|--0---0----0--0--|---2--2----3--3--|
G-|---0---0---0-----|---0-------0-----|--0^1-0^1--1---1-|---2---0---2---3-|
D-|-----------------|-----------------|---H---H---------|---------0-------|
A-|---------2-------|-----------------|-----------------|-0---0-------0---|
E-|-3---3-------0-2-|-3---0-2-3---3-2-|-0---0---0---0---|-----------------|
                      Ma's out there... Dad's in ...      I'm out here ...

    G                 E                 A                 D
E-|---3-------3-----|--0---0----0--0--|---0--0----2--2--|---2--2----2-----|
B-|---0-------0-----|--0---0----0--0--|---2--2----2--2--|---3--3----3-----|
G-|---0-------0-----|--0^1-0^1--1---1-|---2---2---2---0-|---2---2---2-----|
D-|-----------------|---H---H---------|-----------------|-0-------0-------|
A-|-----------------|-----------------|-0---0---0---0---|-----0-----------|
E-|-3---0-2-3-3-2-1-|-0---0---0---0---|-----------------|-------------0-2-|
    Eu phoria Euphoria ...              Your inside ...   Floating around ...

    G                 E                  A                 D
E-|---3-------3-----|--0---0----0--0--|---0--0----2--2--|---2--2----2-----|
B-|---0-------0-----|--0---0----0--0--|---2--2----2--2--|---3--3----3-----|
G-|---0-------0-----|--0^1-0^1--1---1-|---2---2---2---0-|---2---2---2-----|
D-|-----------------|---H---H---------|-----------------|-0-------0-------|
A-|-----------------|-----------------|-0---0---0---0---|-----0-----------|
E-|-3---0-2-3-3-2-1-|-0---0---0---0---|-----------------|-------------0-2-|
    Eu phoria Euphoria

return to beginning


Ending (after third verse):

    G            G7
E-|---3---3---3--1--|
B-|---0---0---0--0--|
G-|---0---0---0--0--|
D-|---------0----0--|
A-|-----2--------2--|
E-|-3------------3--|

     
Добавлено: 25.11.2013
Другие материалы по этой песне:
  • Аккорды и текст

Страница создана 25.11.2013
http://primanota.ru/holy-modal-rounders/euphoria-chords.htm
Привет, Гость.
Предлагаем пройти революционный курс по гитаре.
Подарок от PrimaNota.Ru, забирай!