PrimaNota.ru - самый крупный в мире бесплатный архив песенных текстов, аккордов, табулатур и нот


Holy Grail - Fight To Kill - таба, видео

Регистрация Запомнить меня
Войти через:  Facebook Google Twitter Vk Yandex Mail.ru

Holy Grail - Fight To Kill - таба, видео

Печатать
Просмотров: 99
-----------------------------------------------------------------------------
                             Holy Grail – FIGHT TO KILL
-----------------------------------------------------------------------------
I was dismayed to see no Holy Grail tabs on UG, so I decided to add one. This is the
version from their debut EP, Improper Burial. I know the timing is off, listen to the song
to figure it out. If you find ways that it could be improved, please comment below. I 
haven't been able to figure out the lead guitar parts yet, this is just the riffs and 
rhythm parts.
Tabbed by: thrashmonkey

Tuning: D

INTRO:
d|-------------------------------------------------|
A|-------------------------------------------------|
F|-------------------------------------------------|
C|-7-------9--9--7-------9-9—-12\11-12-12—-5/7-7-7-|
G|-5-7-7-7-7--7--5-7-7-7-7-7—-10\9--10-10—-3/5-5-5-|
D|-------------------------------------------------|

X3, then
d|-------------------------------------------|
A|-------------------------------------------|
F|-------------------------------------------|
C|-7-------9--9--7-------9-9—-12\11-12-12—14-|
G|-5-7-7-7-7--7--5-7-7-7-7-7—-10\9--10-10-12-|
D|-------------------------------------------|

VERSE
“White lightning over you, fire in the air…”
d|-------------------------------------------------|
A|-------------------------------------------------|
F|-------------------------------------------------|
C|-7-------9--9--7-------9-9—-12\11-12-12—-5/7-7-7-|
G|-5-7-7-7-7--7--5-7-7-7-7-7—-10\9--10-10—-3/5-5-5-|
D|-------------------------------------------------|

d|-------------------------------------------------|
A|-------------------------------------------------|
F|-------------------------------------------------|
C|-7-------9--9--7-------9-9—-12\11-12-12—-5/7-7-7-|
G|-5-7-7-7-7--7--5-7-7-7-7-7—-10\9--10-10—-3/5-5-5-|
D|-------------------------------------------------|

d|-------------------------------------------------|
A|-------------------------------------------------|
F|-------------------------------------------------|
C|-7-------9--9--7-------9-9—-12\11-12-12—-5/7-7-7-|
G|-5-7-7-7-7--7--5-7-7-7-7-7—-10\9--10-10—-3/5-5-5-|
D|-------------------------------------------------|

d|-------------------------------------------------|
A|-------------------------------------------------|
F|-------------------------------------------------|
C|-7-------9--9--7-------9-9—-12\11-12-12—-5/7-7-7-|
G|-5-7-7-7-7--7--5-7-7-7-7-7—-10\9--10-10—-3/5-5-5-|
D|-------------------------------------------------|

CHORUS
Woooooooooo, power, courage, sword and shield…”
d----------------------------------------------------|
A|---------------------------------------------------|
F|---------------------------------------------------|
C|-5--------2----------------------------------------|
G|-3--3-2-0-0--0-----2--2----------------------------|
D|--------------3-2-0--0-0-0-0-0-0-0-0-0-0-0-0-0-0-0-|

X3, then
Chorus 2
d|-----------------------|
A|-----------------------|
F|-----------------------|
C|-5--------7-------2--4-|
G|-3--3-2-0-5---5---0--2-|
D|--------------3--------|

INTRO part 2 (there is a short guitar solo over this):

d|-------------------------------------------------|
A|-------------------------------------------------|
F|-------------------------------------------------|
C|-7-------9--9--7-------9-9—-12\11-12-12—-5/7-7-7-|
G|-5-7-7-7-7--7--5-7-7-7-7-7—-10\9--10-10—-3/5-5-5-|
D|-------------------------------------------------|

d|--------------------------------------------|
A|--------------------------------------------|
F|--------------------------------------------|
C|-7-------9--9--7-------9-9—-12\11-12-12—14--|
G|-5-7-7-7-7--7--5-7-7-7-7-7—-10\9--10-10-12--|
D|--------------------------------------------|

VERSE 2
Same as Verse 1

CHORUS 2

Same as Chorus 1

BRIDGE 1
d|--------------------------------------------------------|
A|--------------------------------------------------------|
F|--------------------------------------------------------|
C|-----9-----9-----9-----11-------12-------12-----7-----7-|
G|-7-7-7-7-7-7-7-7-7-7-7-9--10-10-10-10-10-10-5-5-5-5-5-5-|
D|--------------------------------------------------------|

d|-------------------------------------------------|
A|-------------------------------------------------|
F|-------------------------------------------------|
C|-----9-----9-----9-----9-----5-5/7-5-----4-----4-|
G|-7-7-7-7-7-7-7-7-7-7-7-7-3-3-3-3/5-3-2-2-2-2-2-2-|
D|-------------------------------------------------|

d|--------------------------------------------------------|
A|--------------------------------------------------------|
F|--------------------------------------------------------|
C|-----9-----9-----9-----11-------12-------12-----7-----7-|
G|-----7-----7-----7-----9--10-10-10-10-10-10-5-5-5-5-5-5-|
D|-0-0---0-0---0-0---0-0----------------------------------|

d|-------------------------------------------------|
A|-------------------------------------------------|
F|-------------------------------------------------|
C|-----9-----9-----9-----9-----5-5/7-5-----------2-|
G|-----7-----7-----7-----7-3-3-3-3/5-3-----5-0-0-0-|
D|-0-0---0-0---0-0---0-0---------------3-3-3-------|

BRIDGE 2
d|------------------------------------------------------------|
A|------------------------------------------------------------|
F|------------------------------------------------------------|
C|---------9-----10\9--7/9-7/9---------9-----10\9----5/7--5\7-|
G|---------7------8\7--5/7-5/7---------7------8\7----3/5--3\5-|
D|-0-0-0-0---0-0------0--------0-0-0-0---0-0-------0----------|

d|------------------------------------------------------------|
A|------------------------------------------------------------|
F|------------------------------------------------------------|
C|---------9-----10\9--7/9-7/9---------9-----12\10--10\9--7/9-|
G|---------7------8\7--5/7-5/7---------7-----10\8----8\7--5/7-|
D|-0-0-0-0---0-0------0--------0-0-0-0---0-0-------0----------|

d|------------------------------------------------------------|
A|------------------------------------------------------------|
F|------------------------------------------------------------|
C|-----9----9---10\9--7/9-7/9-----9----9-----10\9----5/7--5\7-|
G|-----7----7----8\7--5/7-5/7-----7----7------8\7----3/5--3\5-|
D|-0-0---0-0---------0--------0-0---0---0-0-------0-----------|

d|------------------------------------------------------------|
A|------------------------------------------------------------|
F|------------------------------------------------------------|
C|-----9-----9--10\9--7/9-7/9---------------------------------|
G|-----7-----7---8\7--5/7-5/7---------------------------------|
D|-0-0---0-0---------0--------5-5-5-5-3-3-3-3-1-1-1-1-000-000-|

That's pretty much it, except for the leads, which I'll add when I figure them out.
\m/

************************************

| /   slide up
| \   slide down
| h   hammer-on
| p   pull-off
| ~   vibrato
| +   harmonic
| x   Mute note
| b   Bend
| pb  Pre-bend
| br  Bend release
| pbr Pre-bend release
| brb Bend release bend

************************************
Добавлено: 08.06.2012
Другие материалы по этой песне:
  • Аккорды и текст

Страница создана 08.06.2012
http://primanota.ru/holy-grail/fight-to-kill-chords.htm
Привет, Гость.
Предлагаем пройти революционный курс по гитаре.
Подарок от PrimaNota.Ru, забирай!