PrimaNota.ru - самый крупный в мире бесплатный архив песенных текстов, аккордов, табулатур и нот


Holy Grail - Call Of Valhalla - бас-таба, видео

Регистрация Запомнить меня
Войти через:  Facebook Google Twitter Vk Yandex Mail.ru

Holy Grail - Call Of Valhalla - бас-таба, видео

Печатать
Просмотров: 164
Уроки эстрадного вокала в Санкт-Петербурге
There's no tabs for this song at all! I really don't unnderstand that, its such a killer 
song! Well I decided that since this is my favorite HG song, I'd learn the bass line 
(by ear!) and pass it on to you. It took me a few hours to do, but it was worth 
it! Standard tuning.

Intro (0:05)
G---------------------|
D---------------------|
A---------------------|
E----77-00-77\--------|

(0:07)
G---------------------------------------------|
D---------------------------------------------|
A---------------------------------------------|
E--0-3-000-53--0-3-000-53--0-3-000-53—035753*-|

Verse Riff 1(0:14)
G-------------------------|
D-------------------------|
A-------------------------|
E-3-00000000-303-00000000-| x3

Verse Riff 2 (0:25)
G-------------------------------|
D-------------------------------|
A-------------------------------|
E-3-00000000--0706050*----------|

Verse Riff 1 (0:28)

Verse Riff 3 (0:35)
G-----------------------------------------|
D-----------------------------------------|
A-----------------------------------------|
E-3-00000000-303-00000000-76-74-0706050*--|

Pre-Chorus (0:42)
G--------------------------------------------|
D--------------------------------------------|
A--------------------------------------------|
E---5*-53*-0-3-000-53-0-3-000-53-5*-53*------|

Chorus (0:52)
G-----------------------------------------------------------|
D-----------------------------------------------------------|
A-----------------------------------------------------7-5---|
E--5-0000-3-0000-5-0000-5-0000-7-0000-5-0000-3-0000-5-------|

(0:59)
G--------------------------------------------------|
D--------------------------------------------------|
A--------------------------------------------------|
E---5-0000-3-0000-5-0000-7-0000-5-0000-3-0000------|

Post-Chorus (1:04)
G---------------------------------|
D---------------------------------|
A----------------------------3*---|
E-0-33*--0-33*--0-33*--035753-----|

Verse Riff 1 (1:12)
Verse Riff 2 (1:22)
Verse Riff 1 (1:26)
Verse Riff 3 (1:33)
Pre-Chorus (1:40)
Chorus (1:50)
Pre-Solo (2:03) x2
G-------------------------------|
D-------------------------------|
A-------------------------------|
E-000-35-000-13-000-57-000-35---|

G-------------------------------|
D-------------------------------|
A-------------------------------|
E-000-535-000-757-000000000-----|

Guitar Solo (2:16)
G---------|
D---------|
A---------|
E--3-0000-| x14

G-----------------|
D-----------------|
A-----------------|
E--3-3333-5-5555--|

G-----------------------------------------------------------|
D-----------------------------------------------------------|
A-----------------------------------------------------7-5---|
E--5-0000-3-0000-5-0000-5-0000-7-0000-5-0000-3-0000-5-------|

G--------------------------------------------------|
D--------------------------------------------------|
A--------------------------------------------------|
E---5-0000-3-0000-5-0000-7-0000-5-0000-3-0000------|

Solo Ending (2:43) Hit the open E every time they say “Hey!”
G-----------------------------------|
D-----------------------------------|
A-----------------------------------|
E-0--0--0--0--0--0--76-74-0706050*--|

Pre-Chorus (2:52)

Chorus (Slight change up) (3:02)
G-----------------------------------------------------------|
D-----------------------------------------------------------|
A-----------------------------------------------------7-5---|
E--5-0000-3-0000-5-0000-5-0000-7-0000-5-0000-3-0000-5-------|
                                                      (3:15)
G--------------------------------------------------| G-------------|
D--------------------------------------------------| D-----3-------|
A--------------------------------------------------| A--023--320---|
E---5-0000-3-0000-5-0000-7-0000-5-0000-3-0000------| E-------------|

G-----------------------------------------------------------|
D-----------------------------------------------------------|
A-----------------------------------------------------------|
E--5-0000-3-0000-5-0000-5-0000-7-0000-5-0000-3-0000-5*-3*---|

G--------------------------------------------------|
D--------------------------------------------------|
A--------------------------------------------------|
E---5-0000-3-0000-5-0000-7-0000-5-0000-3-0000------|

Outro
G-----------------------------------------------|
D-----------------------------------------------|
A-----------------------------------------------|
E--0-3-000-53--0-3-000-53--0-3-000-53—76-74*-0*-|
Добавлено: 26.03.2012
Другие материалы по этой песне:
  • Аккорды и текст

Страница создана 26.03.2012
http://primanota.ru/holy-grail/call-of-valhalla-chords.htm
Привет, Гость.
Предлагаем пройти революционный курс по гитаре.
Подарок от PrimaNota.Ru, забирай!