PrimaNota.ru - самый крупный в мире бесплатный архив песенных текстов, аккордов, табулатур и нот


Holocaust - Mavrock - таба, видео

Регистрация Запомнить меня
Войти через:  Facebook Google Twitter Vk Yandex Mail.ru

Holocaust - Mavrock - таба, видео

Печатать
Просмотров: 144
Intro
D |---------------------------------------|
A |---------------------------------------|
F |---------------------------------------|
C |----------9-10-------------------------|
G |-7--9-10--7--8-----7--9-10--9--3--3--5-|
D |-5--7--8-----------5--7--8--7--1--1--3-|

Riff 1 - Verse Riff


D |---------------------------------|
A |---------------------------------|
F |---------------------------------|
C |-2-2-2-2-2-2-2-2-2-2-4-4-5-5-4-4-|
G |-0-0-0-0-0-0-0-0-0-0-2-2-3-3-2-2-|
D |---------------------------------|

Verse Riff Type 2

D |-----------------------------------------------------------------|
A |-----------------------------------------------------------------|
F |-----------------------------------------------------------------|
C |-2-2-2-2-2-2-2-2-2-2-4-4-5-5-4-4---------------------4-4-5-5-4-4-|
G |-0-0-0-0-0-0-0-0-0-0-2-2-3-3-2-2-3-3-3-3-3-3-3-3-3-3-2-2-3-3-2-2-|
D |---------------------------------1-1-1-1-1-1-1-1-1-1-------------|

Pre Chorus

D |-------------------------------------------------|
A |-------------------------------------------------|
F |-------------------------------------------------|
C |----------9-10---12-10-9-------------------------|
G |-7--9-10--7--8---10--8-7---7--9-10--9--3--3--5-5-|
D |-5--7--8-------------------5--7--8--7--1--1--3-3-|

Chorus

D |----------------------------------------|
A |----------------------------------------|
F |----------------------------------------|
C |-3--2---2--3--2---2---------------------|
G |-1--0-0-0--1--0-0-0--5--4---4--5--4---4-|
D |---------------------3--2-2-2--3--2-2-2-|

Fill

D |----------------|
A |----------------|
F |----------------|
C |----------------|
G |-2-2---3-3---5--|
D |-0-0---1-1---3--|

Fill 2

D |-------------------|
A |-------------------|
F |-------------------|
C |-2--5--4------3--2-|
G |-0--3--2---5--1--0-|
D |-----------3-------|

Order
Intro         x2
Verse Riff    x2
Verse Riff 2  x1
Verse Riff    x3
Verse Riff    x1
Verse Riff    x3
Verse Riff 2  x1
Pre Chorus    x2
Chorus        x2
Fill          x1
Verse Riff    x2
Verse Riff 2  x1
Verse Riff    x3
Verse Riff 2  x1
Verse Riff    x3
Pre Chorus    x2
Chorus        x2
Fill          x1
Fill 2        x4
Chorus        x2
Fill          x1
Fill 2        x4
Добавлено: 26.06.2012
Другие материалы по этой песне:
  • Аккорды и текст

Страница создана 26.06.2012
http://primanota.ru/holocaust/mavrock-chords.htm
Привет, Гость.
Предлагаем пройти революционный курс по гитаре.
Подарок от PrimaNota.Ru, забирай!