PrimaNota.ru - самый крупный в мире бесплатный архив песенных текстов, аккордов, табулатур и нот


Holocaust - Death Or Glory - аккорды и текст, таба, видео

Регистрация Запомнить меня
Войти через:  Facebook Google Twitter Vk Yandex Mail.ru

Holocaust - Death Or Glory - аккорды и текст, таба, видео

Печатать
Просмотров: 132
Уроки эстрадного вокала в Санкт-Петербурге
Death Or Glory
Holocaust
Intro:		
[-----------------------------------------------------------------------------
-----------------------------------------------------------------------------
---54--------------------------54--------------------------54-------------
---32-----2--2--2--2--2--2-----32-----2--2--2--2--2--2-----32-----2--2----
-----------2--2--2--2--2--2-------------2--2--2--2--2--2-------------2--2----
-----------0--0--0--0--0--0-------------0--0--0--0--0--0-------------0--0----

-------------------------------------------------------------------------------
-------------------------------------------------------------------------------
---------------5--5--7-----54--------------------------54--------------------
2--2--2--2-----5--5--7-----32-----2--2--2--2--2--2-----32-----2--2--2--2-----
2--2--2--2-----3--3--5-------------2--2--2--2--2--2-------------2--2--2--2-----
0--0--0--0-------------------------0--0--0--0--0--0-------------0--0--0--0-----

-------------------------------------------------------------------------------
-------------------------------------------------------------------------------
---------54--------------------------5--5--5--5--5--7-----54-----------------
2--2-----32-----2--2--2--2--2--2-----5--5--5--5--5--7-----32-----2--2--2-----
2--2-------------2--2--2--2--2--2-----3--3--3--3--3--5-------------2--2--2-----
0--0-------------0--0--0--0--0--0----------------------------------0--0--0-----

-------------------------------------------------------------------------------
-------------------------------------------------------------------------------
------------54--------------------------54--------------------------5--5-----
2--2--2-----32-----2--2--2--2--2--2-----32-----2--2--2--2--2--2-----5--5-----
2--2--2-------------2--2--2--2--2--2-------------2--2--2--2--2--2-----3--3-----
0--0--0-------------0--0--0--0--0--0-------------0--0--0--0--0--0--------------

-------------------------------------------------------------------------------
-------------------------------------------------------------------------------
7-----54--------------------------54--------------------------54------------
7-----32-----2--2--2--2--2--2-----32-----2--2--2--2--2--2-----32-----2------
5-------------2--2--2--2--2--2-------------2--2--2--2--2--2-------------2------
--------------0--0--0--0--0--0-------------0--0--0--0--0--0-------------0------

Verse Riff:	---------------------------------------------------------------------------
---------------------------------------------------------------------------
------------------5--5--7----*---54--------------------------54----------
2--2--2--2--2-----5--5--7----*---32-----2--2--2--2--2--2-----32-----2----
2--2--2--2--2-----3--3--5----------------2--2--2--2--2--2-------------2----
0--0--0--0--0----------------------------0--0--0--0--0--0-------------0----

-----------------------------------------------------------------------------
-----------------------------------------------------------------------------
------------------54--------------------------5--5--7--*--------------------
2--2--2--2--2-----32-----2--2--2--2--2--2-----5--5--7--*--------------------
2--2--2--2--2-------------2--2--2--2--2--2-----3--3--5-----------------------
0--0--0--0--0-------------0--0--0--0--0--0-----------------------------------]

I can feel it now...
[-------------------------------------------------------------------------------
-------------------------------------------------------------------------------
-------------------------------------------------------------------------------
----------7--------9--------10--------9--------7-----------7--------9----------
----0--0-----0--0-----0--0------0--0-----0--0--------0--0-----0--0-----0--0----
-------------------------------------------------------------------------------]

 Riff played Before & During Solo
 I know this is wrong, but it seems to fit.
[--------------------------------------------------------------------
--------------------------------------------------------------------
-------------------------------------------------5-7--7--10-9--7-9--
10--------9--------7-----2--2--2--2--2--2--2-----5/7--7--109--7/9--
----0--0-----0--0--------2--2--2--2--2--2--2-----3-5--5--8--7--5-7--
-------------------------0--0--0--0--0--0--0------------------------]
Добавлено: 05.12.2015
Другие материалы по этой песне:

Страница создана 14.03.2012
http://primanota.ru/holocaust/death-or-glory-chords.htm
Привет, Гость.
Предлагаем пройти революционный курс по гитаре.
Подарок от PrimaNota.Ru, забирай!