PrimaNota.ru - самый крупный в мире бесплатный архив песенных текстов, аккордов, табулатур и нот


Hollywood Undead - War Child - таба, видео

Регистрация Запомнить меня
Войти через:  Facebook Google Twitter Vk Yandex Mail.ru

Hollywood Undead - War Child - таба, видео

Печатать
Просмотров: 475
Tuning: Standart D (DGCFAd)

Tabbed by Paprokh
YouTube channel: https://www.youtube.com/channel/UCHLYF_HomTPDwXW8SFrehZw

Main Riff:

e|---------------------|
B|---------------------|
G|---------------------|
D|---------------------|
A|------1--------1-----|
E|--3--3-3-3-1333-3-3--|


Main Melody:

e|-----------------------15-|
B|-----15-13----13----------|
G|--12-------12----15-12----|
D|--------------------------|    <---- 7 times
A|--------------------------|
E|--------------------------|

e|-----------------------15-|
B|-----15-13----13----------|
G|-----------------15-------|
D|--15-------15-------15----|
A|--------------------------|
E|--------------------------|

Guitar:

e|--------------------------------------------------------------------|
B|--------------------------------------------------------------------|
G|--------------------------------------------------------------------|
D|--55555555555555555555555555555555555555555555555555555555-33333333-|
A|--55555555555555555555555555555555555555555555555555555555-33333333-|
E|--33333333333333333333333333333333333333333333333333333333-11111111-|
Добавлено: 19.09.2015
Другие материалы по этой песне:
  • Аккорды и текст

Страница создана 19.09.2015
http://primanota.ru/hollywood-undead/war-child-chords.htm
Привет, Гость.
Предлагаем пройти революционный курс по гитаре.
Подарок от PrimaNota.Ru, забирай!