PrimaNota.ru - самый крупный в мире бесплатный архив песенных текстов, аккордов, табулатур и нот


Hollywood Undead - The Natives - текст песни, таба, бас-таба, видео

Регистрация Запомнить меня
Войти через:  Facebook Google Twitter Vk Yandex Mail.ru

Hollywood Undead - The Natives - текст песни, таба, бас-таба, видео

Печатать
Просмотров: 359
-------------------------------------------------------------------------------
                         The Natives - Hollywood Undead
-------------------------------------------------------------------------------
Website: http://www.myspace.com/hollywoodundead  {site currently under construction}
Tabbed by: bloodred16
Email: happytreefriends_firstblood@hotmail.com

Tuning: Standard (EADGBe)

This band are great and it's a sunday morning with nothing else to do except wait
for someone so i thought i'd do this song, i've included parts which would normally
be played on other instruments so don't be all like "This tabs crap there's not 4
guitars!" cuz i'm just arranging other instruments for guitars! I reckon it's all
there, there might be a couple of mistakes but not many:)

Enjoi.....

Intro
Riff A (Gtr.1)
e|---------------------------------------------------------------------------|
B|---------------------------------------------------------------------------|
G|---------------------------------------------------------------------------|
D|----------------1--------------------1------1------------------------------|
A|3-5-3--3-5-3--3---3--3-5-3--3-5-3--3---3--3---3--3-5-3---------------------|
E|---------------------------------------------------------------------------|
  PM---------------------------------------------------|

Verse - Riff A (x3)(Gtr.1)

Rhy. Fig. 1 - played on strings (x6)(Gtr.2)
e|---------------------------------------------------------------------------|
B|---------------------------------------------------------------------------|
G|---------------------------------------------------------------------------|
D|5---5----------------------------------------------------------------------|
A|3---3-5---5-6---6-8--------------------------------------------------------|
E|------3---3-4---4-6--------------------------------------------------------|

Chorus - Riff A (x2)(Gtr.1)
       - Rhy. Fig. 1 (x4)(Gtr.2)

Rhy. Fig. 2 (x4)(Gtr.3)
e|---------------------------------------------------------------------------|
B|---------------------------------------------------------------------------|
G|5---5----------------------------------------------------------------------|
D|5---5-5---5-6---6-8--8-----------------------------------------------------|
A|3---3-5---5-6---6-8--8-----------------------------------------------------|
E|------3---3-4---4-6--6-----------------------------------------------------|

Riff B (x4) - Piano (Gtr.4)
e|---------------------------------------------------------------------------|
B|---------------------------------------------------------------------------|
G|--------------------------------12-----------------------------------------|
D|------13-----------12------------------------15----------------------------|
A|15-15----15--15-15----15--15-15----15--15-15----15-------------------------|
E|---------------------------------------------------------------------------|

Verse - Riff A (x4)(Gtr.1)

Rhy. Fig. 3 (x8) (Gtr.3)
e|---------------------------------------------------------------------------|
B|---------------------------------------------------------------------------|
G|---------------------------------------------------------------------------|
D|5-5--5---------------------------------------------------------------------|
A|3-3--3-5-5--5-6-6--6-8-8---------------------------------------------------|
E|-------3-3--3-4-4--4-6-6---------------------------------------------------|
  PM---------------------|

Gtr.1 & Gtr.3 tacet

Riff B - (Gtr.4)

Chorus - Riff A (x2)(Gtr.1)
       - Rhy. Fig. 1 (x4)(Gtr.2)
       - Rhy. Fig. 2 (x4)(Gtr.3)
       - Riff B (x4)(Gtr.4)

Verse - Riff A (x4)(Gtr.1)
      - Rhy. Fig. 3 (x8)(Gtr.3)
      - After Rhy. Fig. 3 twice Gtr. 4 plays Riff B once, then every other time
        after that.

Gtr.1 & Gtr.3 tacet

Riff B - (Gtr.4)

Chorus - Riff A (x2)(Gtr.1)
       - Rhy. Fig. 1 (x4)(Gtr.2)
       - Rhy. Fig. 2 (x4)(Gtr.3)
       - Riff B (x4)(Gtr.4)

Ending - Riff A (x2)(Gtr.1)
       - Rhy. Fig. 1 (x4)(Gtr.2)

PM--|  Palm Mute
===============================================================================
Добавлено: 04.04.2012
Другие материалы по этой песне:

Страница создана 04.04.2012
http://primanota.ru/hollywood-undead/the-natives-chords.htm
Привет, Гость.
Предлагаем пройти революционный курс по гитаре.
Подарок от PrimaNota.Ru, забирай!