PrimaNota.ru - самый крупный в мире бесплатный архив песенных текстов, аккордов, табулатур и нот


Hollywood Undead - Scava - текст песни, таба, видео

Регистрация Запомнить меня
Войти через:  Facebook Google Twitter Vk Yandex Mail.ru

Hollywood Undead - Scava - текст песни, таба, видео

Печатать
Просмотров: 1108
----------------------------------------------------------------------------
                                  S.C.A.V.A
                               Hollywood Undead
----------------------------------------------------------------------------

To start, this is my favorite song off their new album! It's got an unbelievable Chorus,
the Verses are perfect, and it shows HU's great potential even after the fall of Deuce.
I believe Danny is a great substitute, but will never say Deuce was not as good. They 
are both incredible! I add the piano and orchestra to the verse on the guitar part. Check
out my cover, and you'll know what I mean. Enjoy!

Username: dkm817 (same on X box live)
Lyrics made by: http://www.azlyrics.com/lyrics/hollywoodundead/scava.html
Youtube Guitar Cover: http://www.youtube.com/watch?v=PEyStZmih0U
Email: guitardrums@rockfan.com

(Tab Legend at bottom)
Guitar 1 Rhythmic (C G C F A D)
Guitar 2 Lead     (C G C F A D)

Intro



Guitar 1 & 2 (Fade In)
D---------------------------------------|---------------------------------------|
A---------------------------------------|---------------------------------------|
F---------------------------------------|---------------------------------------|
C---------------------------------------|----------------------9~~~~~~~~~~~~~~~-|
G---------------------------------------|----------------------9~~~~~~~~~~~~~~~-|
C---------------------------------------|----------------------9~~~~~~~~~~~~~~~-|



Chorus 1



Guitar 1 & 2 “When The End Is Getting Closer.”
D---------------------------------------|---------------------------------------|
A---------------------------------------|---------------------------------------|
F---------------------------------------|---------------------------------------|
C-9-9~~~~-9~~~~-9-9~~~~~~~~~~~~~~~~~~~~-|-9-9~~~~-9~~~~-9-9~~~~~~~~~~~~~~~~~~~~-|
G-9-9~~~~-9~~~~-9-9~~~~~~~~~~~~~~~~~~~~-|-9-9~~~~-9~~~~-9-9~~~~~~~~~~~~~~~~~~~~-|
C-9-9~~~~-9~~~~-9-9~~~~~~~~~~~~~~~~~~~~-|-9-9~~~~-9~~~~-9-9~~~~~~~~~~~~~~~~~~~~-|



Guitar 1 & 2 “And The Earth Has Burned The Sky.”
D---------------------------------------|---------------------------------------|
A---------------------------------------|---------------------------------------|
F---------------------------------------|---------------------------------------|
C-5-5~~~~-5~~~~-5-5~~~~~~~~~~~~~~~~~~~~-|-5-5~~~~-5~~~~-5-5~~~~~~~~~~~~~~~~~~~~-|
G-5-5~~~~-5~~~~-5-5~~~~~~~~~~~~~~~~~~~~-|-5-5~~~~-5~~~~-5-5~~~~~~~~~~~~~~~~~~~~-|
C-5-5~~~~-5~~~~-5-5~~~~~~~~~~~~~~~~~~~~-|-5-5~~~~-5~~~~-5-5~~~~~~~~~~~~~~~~~~~~-|



Guitar 1 & 2 “Now Repent ‘Cause It's All Over.”
D---------------------------------------|---------------------------------------|
A---------------------------------------|---------------------------------------|
F---------------------------------------|-----------------7~~~~~-6~~~~~-2~~~~~~-|
C-7-7~~~~-7~~~~-7-7~~~~~~~~~~~~~~~~~~~~-|-7-7~~~~-7~~~~-7-x------x------x-------|
G-7-7~~~~-7~~~~-7-7~~~~~~~~~~~~~~~~~~~~-|-7-7~~~~-7~~~~-7-5~~~~~-4~~~~~-0~~~~~~-|
C-7-7~~~~-7~~~~-7-7~~~~~~~~~~~~~~~~~~~~-|-7-7~~~~-7~~~~-7-----------------------|



Guitar 1 & 2 “Just Let Me DIE.”
D---------------------------------------|---------------------------------------|
A---------------------------------------|---------------------------------------|
F---------------------------------------|-------------------7-7-6-6-2~~~~~~~~~~-|
C-2-2-2-2-----------x-2-2-2-2---------x-|-2-2-2-2---------x-x-x-x-x-x-----------|
G-2-2-2-2-----------x-2-2-2-2---------x-|-2-2-2-2---------x-5-5-4-4-0~~~~~~~~~~-|
C-2-2-2-2-----------x-2-2-2-2---------x-|-2-2-2-2---------x---------------------|



Verse 1



Guitar 1 “Here's The Massacre, A Mausoleum Fit For Me.”
D-------------------------------------|-------------------------------------|
A-------------------------------------|-------------------------------------|
F-------------------------------------|-------------------------------------|
C-9\~~~~~-----------------------------|-------------------------------------|
G-9\~~~~~-----------------------------|-------------------------------------|
C-9\~~~~~-----------------------------|-------------------------------------|

Guitar 2 (piano part)
D-------------------------------------|-------------------------------------|
A-15-14-15-14-15-14-15-17-15-14----14-|-15-14-15-14-15-14-15-17-15-14----14-|
F-------------------------------16----|-------------------------------16----|
C-------------------------------------|-------------------------------------|
G-------------------------------------|-------------------------------------|
C-------------------------------------|-------------------------------------|



Guitar 1 “Lived A Hundred Years, A Hundred Years I Didn't See.”
D-------------------------------------|-------------------------------------|
A-------------------------------------|-------------------------------------|
F-------------------------------------|-------------------------------------|
C-------------------------------------|-------------------------------------|
G-------------------------------------|-------------------------------------|
C-------------------------------------|-------------------------------------|

Guitar 2
D-------------------------------------|-------------------------------------|
A-15-14-15-14-15-14-15-17-15-14----14-|-15-14-15-14-15-14-15-17-15-14----14-|
F-------------------------------16----|-------------------------------16----|
C-------------------------------------|-------------------------------------|
G-------------------------------------|-------------------------------------|
C-------------------------------------|-------------------------------------|



Guitar 1 “Gave All My Hope Away, Is There Any Left For Me?”
D-------------------------------------|-------------------------------------|
A-------------------------------------|-------------------------------------|
F-------------------------------------|-------------------------------------|
C-------------------------------------|-------------------------------------|
G-------------------------------------|-------------------------------------|
C-------------------------------------|-------------------------------------|

Guitar 2
D-------------------------------------|-------------------------------------|
A-15-14-15-14-15-14-15-17-15-14----14-|-15-14-15-14-15-14-15-17-15-14----14-|
F-------------------------------16----|-------------------------------16----|
C-------------------------------------|-------------------------------------|
G-------------------------------------|-------------------------------------|
C-------------------------------------|-------------------------------------|



Guitar 1 “Bombs Are Splitting Atoms, What Can The Future Bring?”
D-------------------------------------|-------------------------------------|
A-------------------------------------|-------------------------------------|
F-------------------------------------|-------------------------------------|
C-------------------------------------|-------------------------------------|
G-------------------------------------|-------------------------------------|
C-------------------------------------|-------------------------------------|

Guitar 2
D-------------------------------------|-------------------------------------|
A-15-14-15-14-15-14-15-17-15-14----14-|-15-14-15-14-15-14-15-17-15-14----14-|
F-------------------------------16----|-------------------------------16----|
C-------------------------------------|-------------------------------------|
G-------------------------------------|-------------------------------------|
C-------------------------------------|-------------------------------------|



Guitar 1 (Orchestra part) “We Can Fill A Million Choirs, And Wait Till Children Sing.”
D-------------------------------------|-------------------------------------|
A-------------------------------------|-------------------------------------|
F-11----------------11----------------|-11----------------------------------|
C-------9----9------------9----9------|-------9----9-----9-----11----12-----|
G-------------------------------------|-------------------------------------|
C-------------------------------------|-------------------------------------|
Pm.     .    .      .     .    .        .     .    .     .     .     .

Guitar 2
D-------------------------------------|-------------------------------------|
A-15-14-15-14-15-14-15-17-15-14----14-|-15-14-15-14-15-14-15-17-15-14----14-|
F-------------------------------16----|-------------------------------16----|
C-------------------------------------|-------------------------------------|
G-------------------------------------|-------------------------------------|
C-------------------------------------|-------------------------------------|



Guitar 1 “We Can Walk A Million Miles, And End Up In The Sea.”
D-------------------------------------|-------------------------------------|
A-8-----------------8-----------------|-8----------------8-----8-----8------|
F-------------------------------------|-------------------------------------|
C-------5----5------------5----5------|-------5----5------------------------|
G-------------------------------------|-------------------------------------|
C-------------------------------------|-------------------------------------|
Pm.     .    .      .     .    .        .     .    .     .     .     .

Guitar 2
D-------------------------------------|-------------------------------------|
A-15-14-15-14-15-14-15-17-15-14----14-|-15-14-15-14-15-14-15-17-15-14----14-|
F-------------------------------16----|-------------------------------16----|
C-------------------------------------|-------------------------------------|
G-------------------------------------|-------------------------------------|
C-------------------------------------|-------------------------------------|



Guitar 1 “And Our Lungs Just Keep Filling, And Lying When We Breathe.”
D-------------------------------------|-------------------------------------|
A-------------------------------------|-------------------------------------|
F-9-----------------9-----------------|-9----------------9-----9-----9------|
C-------7----7------------7----7------|-------7----7------------------------|
G-------------------------------------|-------------------------------------|
C-------------------------------------|-------------------------------------|
Pm.     .    .      .     .    .        .     .    .     .     .     .

Guitar 2
D-------------------------------------|-------------------------------------|
A-15-14-15-14-15-14-15-17-15-14----14-|-15-14-15-14-15-14-15-17-15-14----14-|
F-------------------------------16----|-------------------------------16----|
C-------------------------------------|-------------------------------------|
G-------------------------------------|-------------------------------------|
C-------------------------------------|-------------------------------------|



Guitar 1 “The World's Filled With Liars, Liars Like Me.”
D-------------------------------------|-------------------------------------|
A-------------------------------------|-------------------------------------|
F-11----------------11----------------|-------------------------------------|
C-------9----9------------9----9------|-9--11--12---------12----11----9-----|
G-------------------------------------|-------------------------------------|
C-------------------------------------|-------------------------------------|
Pm.     .    .      .     .    .        .  .   .          .     .     .

Guitar 2
D-------------------------------------|-------------------------------------|
A-15-14-15-14-15-14-15-17-15-14----14-|-15-14-15-14-15-14-15-17-15-14----14-|
F-------------------------------16----|-------------------------------16----|
C-------------------------------------|-------------------------------------|
G-------------------------------------|-------------------------------------|
C-------------------------------------|-------------------------------------|



Guitar 1 “And I Look At My Child, It's Fire This Feeling.”
D-------------------------------------|-------------------------------------|
A-------------------------------------|-------------------------------------|
F-------------------------------------|-------------------------------------|
C-12----9----9------12----9----9------|-12----9----9-----12----12----12-----|
G-------------------------------------|-------------------------------------|
C-------------------------------------|-------------------------------------|
Pm.     .    .      .     .    .        .     .    .     .     .     .

Guitar 2
D-------------------------------------|-------------------------------------|
A-15-14-15-14-15-14-15-17-15-14----14-|-15-14-15-14-15-14-15-17-15-14----14-|
F-------------------------------16----|-------------------------------16----|
C-------------------------------------|-------------------------------------|
G-------------------------------------|-------------------------------------|
C-------------------------------------|-------------------------------------|



Guitar 1 “It's Blue Like The Sky, I See All Of This Meaning.”
D-------------------------------------|-------------------------------------|
A-8-----------------8-----------------|-8----------------8-----8-----8------|
F-------------------------------------|-------------------------------------|
C-------5----5------------5----5------|-------5----5------------------------|
G-------------------------------------|-------------------------------------|
C-------------------------------------|-------------------------------------|
Pm.     .    .      .     .    .        .     .    .     .     .     .

Guitar 2
D-------------------------------------|-------------------------------------|
A-15-14-15-14-15-14-15-17-15-14----14-|-15-14-15-14-15-14-15-17-15-14----14-|
F-------------------------------16----|-------------------------------16----|
C-------------------------------------|-------------------------------------|
G-------------------------------------|-------------------------------------|
C-------------------------------------|-------------------------------------|



Guitar 1 “I Reach Up To God, And Ask If I'm Dreaming.”
D-------------------------------------|-------------------------------------|
A-------------------------------------|-------------------------------------|
F-9-----------------9-----------------|-9----------------9-----9-----9------|
C-------7----7------------7----7------|-------7----7------------------------|
G-------------------------------------|-------------------------------------|
C-------------------------------------|-------------------------------------|
Pm.     .    .      .     .    .        .     .    .     .     .     .

Guitar 2
D-------------------------------------|-------------------------------------|
A-15-14-15-14-15-14-15-17-15-14----14-|-15-14-15-14-15-14-15-17-15-14----14-|
F-------------------------------16----|-------------------------------16----|
C-------------------------------------|-------------------------------------|
G-------------------------------------|-------------------------------------|
C-------------------------------------|-------------------------------------|



Guitar 1 “I'm So Sorry I Don't Have Those Things That You're Needing.”
D-------------------------------------|-------------------------------------|
A-------------------------------------|-------------------------------------|
F-11----------------11----------------|-------------------------------------|
C-------9----9------------9----9------|-9--11--12---------12----11----9-----|
G-------------------------------------|-------------------------------------|
C-------------------------------------|-------------------------------------|
Pm.     .    .      .     .    .        .  .   .          .     .     .

Guitar 2
D-------------------------------------|-------------------------------------|
A-15-14-15-14-15-14-15-17-15-14----14-|-15-14-15-14-15-14-15-17-15-14----14-|
F-------------------------------16----|-------------------------------16----|
C-------------------------------------|-------------------------------------|
G-------------------------------------|-------------------------------------|
C-------------------------------------|-------------------------------------|



Pre Chorus 1



Guitar 1 “And Darling A Kiss, Kiss Me I'm Leaving.”
D-------------------------------------|-------------------------------------|
A-------------------------------------|-------------------------------------|
F-------------------------------------|-------------------------------------|
C-9~~~~~~-----------------------------|-------------------------------------|
G-------------------------------------|-------------------------------------|
C-------------------------------------|-------------------------------------|
Pm.



Chorus 2



Guitar 1 & 2 “When The End Is Getting Closer.”
D---------------------------------------|---------------------------------------|
A---------------------------------------|---------------------------------------|
F---------------------------------------|---------------------------------------|
C-9-9~~~~-9~~~~-9-9~~~~~~~~~~~~~~~~~~~~-|-9-9~~~~-9~~~~-9-9~~~~~~~~~~~~~~~~~~~~-|
G-9-9~~~~-9~~~~-9-9~~~~~~~~~~~~~~~~~~~~-|-9-9~~~~-9~~~~-9-9~~~~~~~~~~~~~~~~~~~~-|
C-9-9~~~~-9~~~~-9-9~~~~~~~~~~~~~~~~~~~~-|-9-9~~~~-9~~~~-9-9~~~~~~~~~~~~~~~~~~~~-|



Guitar 1 & 2 “And The Earth Has Burned The Sky.”
D---------------------------------------|---------------------------------------|
A---------------------------------------|---------------------------------------|
F---------------------------------------|---------------------------------------|
C-5-5~~~~-5~~~~-5-5~~~~~~~~~~~~~~~~~~~~-|-5-5~~~~-5~~~~-5-5~~~~~~~~~~~~~~~~~~~~-|
G-5-5~~~~-5~~~~-5-5~~~~~~~~~~~~~~~~~~~~-|-5-5~~~~-5~~~~-5-5~~~~~~~~~~~~~~~~~~~~-|
C-5-5~~~~-5~~~~-5-5~~~~~~~~~~~~~~~~~~~~-|-5-5~~~~-5~~~~-5-5~~~~~~~~~~~~~~~~~~~~-|



Guitar 1 & 2 “Now Repent ‘Cause It's All Over.”
D---------------------------------------|---------------------------------------|
A---------------------------------------|---------------------------------------|
F---------------------------------------|-----------------7~~~~~-6~~~~~-2~~~~~~-|
C-7-7~~~~-7~~~~-7-7~~~~~~~~~~~~~~~~~~~~-|-7-7~~~~-7~~~~-7-x------x------x-------|
G-7-7~~~~-7~~~~-7-7~~~~~~~~~~~~~~~~~~~~-|-7-7~~~~-7~~~~-7-5~~~~~-4~~~~~-0~~~~~~-|
C-7-7~~~~-7~~~~-7-7~~~~~~~~~~~~~~~~~~~~-|-7-7~~~~-7~~~~-7-----------------------|



Guitar 1 & 2 “Just Let Me DIE.”
D---------------------------------------|---------------------------------------|
A---------------------------------------|---------------------------------------|
F---------------------------------------|-------------------7-7-6-6-2~~~~~~~~~~-|
C-2-2-2-2-----------x-2-2-2-2---------x-|-2-2-2-2---------x-x-x-x-x-x-----------|
G-2-2-2-2-----------x-2-2-2-2---------x-|-2-2-2-2---------x-5-5-4-4-0~~~~~~~~~~-|
C-2-2-2-2-----------x-2-2-2-2---------x-|-2-2-2-2---------x---------------------|



Guitar 1 & 2 “As My Body Lies Here Broken.”
D---------------------------------------|---------------------------------------|
A---------------------------------------|---------------------------------------|
F---------------------------------------|---------------------------------------|
C-9-9~~~~-9~~~~-9-9~~~~~~~~~~~~~~~~~~~~-|-9-9~~~~-9~~~~-9-9~~~~~~~~~~~~~~~~~~~~-|
G-9-9~~~~-9~~~~-9-9~~~~~~~~~~~~~~~~~~~~-|-9-9~~~~-9~~~~-9-9~~~~~~~~~~~~~~~~~~~~-|
C-9-9~~~~-9~~~~-9-9~~~~~~~~~~~~~~~~~~~~-|-9-9~~~~-9~~~~-9-9~~~~~~~~~~~~~~~~~~~~-|



Guitar 1 & 2 “And I'm Carried To The Light.”
D---------------------------------------|---------------------------------------|
A---------------------------------------|---------------------------------------|
F---------------------------------------|---------------------------------------|
C-5-5~~~~-5~~~~-5-5~~~~~~~~~~~~~~~~~~~~-|-5-5~~~~-5~~~~-5-5~~~~~~~~~~~~~~~~~~~~-|
G-5-5~~~~-5~~~~-5-5~~~~~~~~~~~~~~~~~~~~-|-5-5~~~~-5~~~~-5-5~~~~~~~~~~~~~~~~~~~~-|
C-5-5~~~~-5~~~~-5-5~~~~~~~~~~~~~~~~~~~~-|-5-5~~~~-5~~~~-5-5~~~~~~~~~~~~~~~~~~~~-|



Guitar 1 & 2 “Now My Heart Is Finally Open.”
D---------------------------------------|---------------------------------------|
A---------------------------------------|---------------------------------------|
F---------------------------------------|-----------------7~~~~~-6~~~~~-2~~~~~~-|
C-7-7~~~~-7~~~~-7-7~~~~~~~~~~~~~~~~~~~~-|-7-7~~~~-7~~~~-7-x------x------x-------|
G-7-7~~~~-7~~~~-7-7~~~~~~~~~~~~~~~~~~~~-|-7-7~~~~-7~~~~-7-5~~~~~-4~~~~~-0~~~~~~-|
C-7-7~~~~-7~~~~-7-7~~~~~~~~~~~~~~~~~~~~-|-7-7~~~~-7~~~~-7-----------------------|



Guitar 1 & 2 “Just Let Me DIE.”
D---------------------------------------|---------------------------------------|
A---------------------------------------|---------------------------------------|
F---------------------------------------|-------------------7-7-6-6-2~~~~~~~~~~-|
C-2-2-2-2-----------x-2-2-2-2---------x-|-2-2-2-2---------x-x-x-x-x-x-----------|
G-2-2-2-2-----------x-2-2-2-2---------x-|-2-2-2-2---------x-5-5-4-4-0~~~~~~~~~~-|
C-2-2-2-2-----------x-2-2-2-2---------x-|-2-2-2-2---------x---------------------|



Verse 2



Guitar 1 “Everybody Says, ‘Greetings And Goodbyes'.”
D-------------------------------------|-------------------------------------|
A-------------------------------------|-------------------------------------|
F-------------------------------------|-------------------------------------|
C-9\~~~~~-----------------------------|-------------------------------------|
G-9\~~~~~-----------------------------|-------------------------------------|
C-9\~~~~~-----------------------------|-------------------------------------|

Guitar 2
D-------------------------------------|-------------------------------------|
A-15-14-15-14-15-14-15-17-15-14----14-|-15-14-15-14-15-14-15-17-15-14----14-|
F-------------------------------16----|-------------------------------16----|
C-------------------------------------|-------------------------------------|
G-------------------------------------|-------------------------------------|
C-------------------------------------|-------------------------------------|



Guitar 1 “Everybody Pays, No One Knows The Price.”
D-------------------------------------|-------------------------------------|
A-------------------------------------|-------------------------------------|
F-------------------------------------|-------------------------------------|
C-------------------------------------|-------------------------------------|
G-------------------------------------|-------------------------------------|
C-------------------------------------|-------------------------------------|

Guitar 2
D-------------------------------------|-------------------------------------|
A-15-14-15-14-15-14-15-17-15-14----14-|-15-14-15-14-15-14-15-17-15-14----14-|
F-------------------------------16----|-------------------------------16----|
C-------------------------------------|-------------------------------------|
G-------------------------------------|-------------------------------------|
C-------------------------------------|-------------------------------------|



Guitar 1 “We Know The Price Of Sin, The Sin Of Sacrifice.”
D-------------------------------------|-------------------------------------|
A-------------------------------------|-------------------------------------|
F-------------------------------------|-------------------------------------|
C-------------------------------------|-------------------------------------|
G-------------------------------------|-------------------------------------|
C-------------------------------------|-------------------------------------|

Guitar 2
D-------------------------------------|-------------------------------------|
A-15-14-15-14-15-14-15-17-15-14----14-|-15-14-15-14-15-14-15-17-15-14----14-|
F-------------------------------16----|-------------------------------16----|
C-------------------------------------|-------------------------------------|
G-------------------------------------|-------------------------------------|
C-------------------------------------|-------------------------------------|



Guitar 1 “I Know I'll Sin Again, But Who Can Save Me Twice?”
D-------------------------------------|-------------------------------------|
A-------------------------------------|-------------------------------------|
F-------------------------------------|-------------------------------------|
C-------------------------------------|-------------------------------------|
G-------------------------------------|-------------------------------------|
C-------------------------------------|-------------------------------------|

Guitar 2
D-------------------------------------|-------------------------------------|
A-15-14-15-14-15-14-15-17-15-14----14-|-15-14-15-14-15-14-15-17-15-14----14-|
F-------------------------------16----|-------------------------------16----|
C-------------------------------------|-------------------------------------|
G-------------------------------------|-------------------------------------|
C-------------------------------------|-------------------------------------|



Guitar 1 “How Much Can We Ask, You'll Get The Answer First.”
D-------------------------------------|-------------------------------------|
A-------------------------------------|-------------------------------------|
F-11----------------11----------------|-11----------------------------------|
C-------9----9------------9----9------|-------9----9-----9-----11----12-----|
G-------------------------------------|-------------------------------------|
C-------------------------------------|-------------------------------------|
Pm.     .    .      .     .    .        .     .    .     .     .     .

Guitar 2
D-------------------------------------|-------------------------------------|
A-15-14-15-14-15-14-15-17-15-14----14-|-15-14-15-14-15-14-15-17-15-14----14-|
F-------------------------------16----|-------------------------------16----|
C-------------------------------------|-------------------------------------|
G-------------------------------------|-------------------------------------|
C-------------------------------------|-------------------------------------|



Guitar 1 “How Much Can We Knell, With The Air That Chills The Earth?”
D-------------------------------------|-------------------------------------|
A-8-----------------8-----------------|-8----------------8-----8-----8------|
F-------------------------------------|-------------------------------------|
C-------5----5------------5----5------|-------5----5------------------------|
G-------------------------------------|-------------------------------------|
C-------------------------------------|-------------------------------------|
Pm.     .    .      .     .    .        .     .    .     .     .     .

Guitar 2
D-------------------------------------|-------------------------------------|
A-15-14-15-14-15-14-15-17-15-14----14-|-15-14-15-14-15-14-15-17-15-14----14-|
F-------------------------------16----|-------------------------------16----|
C-------------------------------------|-------------------------------------|
G-------------------------------------|-------------------------------------|
C-------------------------------------|-------------------------------------|



Guitar 1 “The Air Keeps Getting Colder, My Knees Keep Hitting Dirt.”
D-------------------------------------|-------------------------------------|
A-------------------------------------|-------------------------------------|
F-9-----------------9-----------------|-9----------------9-----9-----9------|
C-------7----7------------7----7------|-------7----7------------------------|
G-------------------------------------|-------------------------------------|
C-------------------------------------|-------------------------------------|
Pm.     .    .      .     .    .        .     .    .     .     .     .

Guitar 2
D-------------------------------------|-------------------------------------|
A-15-14-15-14-15-14-15-17-15-14----14-|-15-14-15-14-15-14-15-17-15-14----14-|
F-------------------------------16----|-------------------------------16----|
C-------------------------------------|-------------------------------------|
G-------------------------------------|-------------------------------------|
C-------------------------------------|-------------------------------------|



Guitar 1 “The Innocent Can Cry Without The Guilty Getting Hurt.”
D-------------------------------------|-------------------------------------|
A-------------------------------------|-------------------------------------|
F-11----------------11----------------|-------------------------------------|
C-------9----9------------9----9------|-9--11--12---------12----11----9-----|
G-------------------------------------|-------------------------------------|
C-------------------------------------|-------------------------------------|
Pm.     .    .      .     .    .        .  .   .          .     .     .

Guitar 2
D-------------------------------------|-------------------------------------|
A-15-14-15-14-15-14-15-17-15-14----14-|-15-14-15-14-15-14-15-17-15-14----14-|
F-------------------------------16----|-------------------------------16----|
C-------------------------------------|-------------------------------------|
G-------------------------------------|-------------------------------------|
C-------------------------------------|-------------------------------------|



Guitar 1 “You Ask Who You Love And You Don't Know Do You?”
D-------------------------------------|-------------------------------------|
A-------------------------------------|-------------------------------------|
F-------------------------------------|-------------------------------------|
C-12----9----9------12----9----9------|-12----9----9-----12----12----12-----|
G-------------------------------------|-------------------------------------|
C-------------------------------------|-------------------------------------|
Pm.     .    .      .     .    .        .     .    .     .     .     .

Guitar 2
D-------------------------------------|-------------------------------------|
A-15-14-15-14-15-14-15-17-15-14----14-|-15-14-15-14-15-14-15-17-15-14----14-|
F-------------------------------16----|-------------------------------16----|
C-------------------------------------|-------------------------------------|
G-------------------------------------|-------------------------------------|
C-------------------------------------|-------------------------------------|



Guitar 1 “The Spirit Of God Just Passes Right Through You.”
D-------------------------------------|-------------------------------------|
A-8-----------------8-----------------|-8----------------8-----8-----8------|
F-------------------------------------|-------------------------------------|
C-------5----5------------5----5------|-------5----5------------------------|
G-------------------------------------|-------------------------------------|
C-------------------------------------|-------------------------------------|
Pm.     .    .      .     .    .        .     .    .     .     .     .

Guitar 2
D-------------------------------------|-------------------------------------|
A-15-14-15-14-15-14-15-17-15-14----14-|-15-14-15-14-15-14-15-17-15-14----14-|
F-------------------------------16----|-------------------------------16----|
C-------------------------------------|-------------------------------------|
G-------------------------------------|-------------------------------------|
C-------------------------------------|-------------------------------------|



Guitar 1 “You Gave Away Heaven Handed Right To You.”
D-------------------------------------|-------------------------------------|
A-------------------------------------|-------------------------------------|
F-9-----------------9-----------------|-9----------------9-----9-----9------|
C-------7----7------------7----7------|-------7----7------------------------|
G-------------------------------------|-------------------------------------|
C-------------------------------------|-------------------------------------|
Pm.     .    .      .     .    .        .     .    .     .     .     .

Guitar 2
D-------------------------------------|-------------------------------------|
A-15-14-15-14-15-14-15-17-15-14----14-|-15-14-15-14-15-14-15-17-15-14----14-|
F-------------------------------16----|-------------------------------16----|
C-------------------------------------|-------------------------------------|
G-------------------------------------|-------------------------------------|
C-------------------------------------|-------------------------------------|



Guitar 1 “And I Can See It All Tell Me Is It True?”
D-------------------------------------|-------------------------------------|
A-------------------------------------|-------------------------------------|
F-11----------------11----------------|-------------------------------------|
C-------9----9------------9----9------|-9--11--12---------12----11----9-----|
G-------------------------------------|-------------------------------------|
C-------------------------------------|-------------------------------------|
Pm.     .    .      .     .    .        .  .   .          .     .     .

Guitar 2
D-------------------------------------|-------------------------------------|
A-15-14-15-14-15-14-15-17-15-14----14-|-15-14-15-14-15-14-15-17-15-14----14-|
F-------------------------------16----|-------------------------------16----|
C-------------------------------------|-------------------------------------|
G-------------------------------------|-------------------------------------|
C-------------------------------------|-------------------------------------|



Guitar 1 “Kiss Me My Darling, Darling I Need You.”
D-------------------------------------|-------------------------------------|
A-------------------------------------|-------------------------------------|
F-------------------------------------|-------------------------------------|
C-9~~~~~~-----------------------------|-------------------------------------|
G-------------------------------------|-------------------------------------|
C-------------------------------------|-------------------------------------|



Interlude



“Where Do We Go We Go Oh.”
“Lord I Don't Know Where Do We Go We Go Now.”



Guitar 2
D------------------------------------|------------------------------------|
A------------------------------------|------------------------------------|
F------------------------------------|-----------------11-11-11-11-16~~~~-|
C------------------------------------|-----------------x--x--x--x--x------|
G------------------------------------|-----------------9--9--9--9--14~~~~-|
C------------------------------------|------------------------------------|



Breakdown



Guitar 1 & 2 “Where Do We Go.”
D------------------------------------|------------------------------------|
A------------------------------------|------------------------------------|
F------------------------------------|------------------------------------|
C-5~~~-------------5~~~--------------|-4~~~-------------4~~~--------------|
G-5~~~-------------5~~~--------------|-4~~~-------------4~~~--------------|
C-5~~~-------------5~~~--------------|-4~~~-------------4~~~--------------|



Guitar 1 & 2 “We Go Oh Lord I Don't.”
D------------------------------------|------------------------------------|
A------------------------------------|------------------------------------|
F-----------------------7~~~~-6~~~~~-|-----------------------7~~~~-6~~~~~-|
C-2~~~-------------2~~~-x-----x------|-4~~~-------------4~~~-x-----x------|
G-2~~~-------------2~~~-5~~~~-4~~~~~-|-4~~~-------------4~~~-5~~~~-4~~~~~-|
C-2~~~-------------2~~~--------------|-4~~~-------------4~~~--------------|



Guitar 1 & 2 “Know Where We Go.”
D------------------------------------|------------------------------------|
A------------------------------------|------------------------------------|
F------------------------------------|------------------------------------|
C-5~~~-------------5~~~--------------|-4~~~-------------4~~~--------------|
G-5~~~-------------5~~~--------------|-4~~~-------------4~~~--------------|
C-5~~~-------------5~~~--------------|-4~~~-------------4~~~--------------|



Guitar 1 & 2 “We Go Now.”
D------------------------------------|------------------------------------|
A------------------------------------|------------------------------------|
F-----------------------7~~~~-6~~~~~-|------------------------------------|
C-2~~~-------------2~~~-x-----x------|-9--9--9--9-------9--9--9--9--------|
G-2~~~-------------2~~~-5~~~~-4~~~~~-|-9--9--9--9-------9--9--9--9--------|
C-2~~~-------------2~~~--------------|-9--9--9--9-------9--9--9--9--------|



Pre Chorus 2



Guitar 1 & 2 “Lord I Don't Know.”
D-----------------=------------------|------------------------------------|
A------------------------------------|------------------------------------|
F------------------------------------|------------------------------------|
C-9\~~~------------------------------|------------------------------------|
G-9\~~~------------------------------|------------------------------------|
C-9\~~~------------------------------|------------------------------------|



Chorus 2



Guitar 1 & 2 “When The End Is Getting Closer.”
D---------------------------------------|---------------------------------------|
A---------------------------------------|---------------------------------------|
F---------------------------------------|---------------------------------------|
C-9-9-9-9-9-9-9~~~~~~~~~~~~~~~~~~~~~~~~-|-9-9-9-9-9-9-9~~~~~~~~~~~~~~~~~~~~~~~~-|
G-9-9-9-9-9-9-9~~~~~~~~~~~~~~~~~~~~~~~~-|-9-9-9-9-9-9-9~~~~~~~~~~~~~~~~~~~~~~~~-|
C-9-9-9-9-9-9-9~~~~~~~~~~~~~~~~~~~~~~~~-|-9-9-9-9-9-9-9~~~~~~~~~~~~~~~~~~~~~~~~-|
Pm  . . . . .                               . . . . .



Guitar 1 & 2 “And The Earth Has Burned The Sky.”
D---------------------------------------|---------------------------------------|
A---------------------------------------|---------------------------------------|
F---------------------------------------|---------------------------------------|
C-5-5-5-5-5-5-5~~~~~~~~~~~~~~~~~~~~~~~~-|-5-5-5-5-5-5-5~~~~~~~~~~~~~~~~~~~~~~~~-|
G-5-5-5-5-5-5-5~~~~~~~~~~~~~~~~~~~~~~~~-|-5-5-5-5-5-5-5~~~~~~~~~~~~~~~~~~~~~~~~-|
C-5-5-5-5-5-5-5~~~~~~~~~~~~~~~~~~~~~~~~-|-5-5-5-5-5-5-5~~~~~~~~~~~~~~~~~~~~~~~~-|
Pm  . . . . .                               . . . . .



Guitar 1 & 2 “Now Repent ‘Cause It's All Over.”
D---------------------------------------|---------------------------------------|
A---------------------------------------|---------------------------------------|
F---------------------------------------|--------------7~~~~~-6~~~~~-2~~~~~~~~~-|
C-7-7-7-7-7-7-7~~~~~~~~~~~~~~~~~~~~~~~~-|-7-7-7-7-7-7--x------x------x----------|
G-7-7-7-7-7-7-7~~~~~~~~~~~~~~~~~~~~~~~~-|-7-7-7-7-7-7--5~~~~~-4~~~~~-0~~~~~~~~~-|
C-7-7-7-7-7-7-7~~~~~~~~~~~~~~~~~~~~~~~~-|-7-7-7-7-7-7---------------------------|
Pm  . . . . .                               . . . . .



Guitar 1 & 2 “Just Let Me DIE.”
D---------------------------------------|---------------------------------------|
A---------------------------------------|---------------------------------------|
F---------------------------------------|-------------------7-7-6-6-2~~~~~~~~~~-|
C-2-2-2-2-----------x-2-2-2-2---------x-|-2-2-2-2---------x-x-x-x-x-x-----------|
G-2-2-2-2-----------x-2-2-2-2---------x-|-2-2-2-2---------x-5-5-4-4-0~~~~~~~~~~-|
C-2-2-2-2-----------x-2-2-2-2---------x-|-2-2-2-2---------x---------------------|



Guitar 1 “As My Body Lies Here Broken.”
D---------------------------------------|---------------------------------------|
A---------------------------------------|---------------------------------------|
F---------------------------------------|---------------------------------------|
C-9--9--9--9--9--9--9--9--9--9--9--9----|-9--9--9--9--9--9--9--9--9--9--9--9----|
G-9--9--9--9--9--9--9--9--9--9--9--9----|-9--9--9--9--9--9--9--9--9--9--9--9----|
C-9--9--9--9--9--9--9--9--9--9--9--9----|-9--9--9--9--9--9--9--9--9--9--9--9----|

Guitar 2
D-19~~~~~~~~~~~~~~~-17~~~~~~~~~~~~~~~~~-|---------------------------------------|
A---------------------------------------|-19~~~~~~~~~~~~~~~-17~~~~~~~~~~~~~~~~~-|
F---------------------------------------|---------------------------------------|
C---------------------------------------|---------------------------------------|
G---------------------------------------|---------------------------------------|
C---------------------------------------|---------------------------------------|



Guitar 1“And I'm Carried To The Light.”
D---------------------------------------|---------------------------------------|
A---------------------------------------|---------------------------------------|
F---------------------------------------|---------------------------------------|
C-5--5--5--5--5--5--5--5--5--5--5--5----|-5--5--5--5--5--5--5--5--5--5--5--5----|
G-5--5--5--5--5--5--5--5--5--5--5--5----|-5--5--5--5--5--5--5--5--5--5--5--5----|
C-5--5--5--5--5--5--5--5--5--5--5--5----|-5--5--5--5--5--5--5--5--5--5--5--5----|

Guitar 2
D-19~~~~~~~~~~~~~~~-17~~~~~~~~~~~~~~~~~-|-------------------17~~~~~~~~~~~~~~~~~-|
A---------------------------------------|-19~~~~~~~~~~~~~~~---------------------|
F---------------------------------------|---------------------------------------|
C---------------------------------------|---------------------------------------|
G---------------------------------------|---------------------------------------|
C---------------------------------------|---------------------------------------|



Guitar 1 & 2 “Now My Heart Is Finally Open.”
D---------------------------------------|---------------------------------------|
A---------------------------------------|---------------------------------------|
F---------------------------------------|--------------7~~~~~-6~~~~~-2~~~~~~~~~-|
C-7--7--7--7--7--7--7--7--7--7--7--7----|-7--7--7--7---x------x------x----------|
G-7--7--7--7--7--7--7--7--7--7--7--7----|-7--7--7--7---5~~~~~-4~~~~~-0~~~~~~~~~-|
C-7--7--7--7--7--7--7--7--7--7--7--7----|-7--7--7--7----------------------------|

Guitar 2
D-19~~~~~~~~~~~~~~~-17~~~~~~~~~~~~~~~~~-|-------------------14~~~~-12~~~~-------|
A---------------------------------------|-19~~~~~~~~~~~~~~~---------------15~~~-|
F---------------------------------------|---------------------------------------|
C---------------------------------------|---------------------------------------|
G---------------------------------------|---------------------------------------|
C---------------------------------------|---------------------------------------|



Guitar 1 “Just Let Me DIE.”
D---------------------------------------|---------------------------------------|
A---------------------------------------|---------------------------------------|
F---------------------------------------|-----------------------7-7-2~~~~~~~~~~-|
C-2-2-2-2-----------x-2-2-2-2---------x-|-2-2-2-2---------x-2-2-x-x-x-----------|
G-2-2-2-2-----------x-2-2-2-2---------x-|-2-2-2-2---------x-2-2-5-5-0~~~~~~~~~~-|
C-2-2-2-2-----------x-2-2-2-2---------x-|-2-2-2-2---------x-2-2-----------------|

Guitar 2
D---------------------------------------|---------------------------------------|
A-12~~~~~~~~~~~~~~~~~~~~~~~~~~~~~~~~~~~-|---------------------------------------|
F---------------------------------------|-----------------------7-7-2~~~~~~~~~~-|
C---------------------------------------|-2-2-2-2---------x-2-2-x-x-x-----------|
G---------------------------------------|-2-2-2-2---------x-2-2-5-5-0~~~~~~~~~~-|
C---------------------------------------|-2-2-2-2---------x-2-2-----------------|



Outro



Guitar 1 & 2
D---------------------------------------|---------------------------------------|
A---------------------------------------|---------------------------------------|
F---------------------------------------|---------------------------------------|
C-9~~~~~~~~~~~~~~~~~~~~~~~~~~~~~~~~~~~~~|~~~~~~~~~~~~~~~~~~~~~~~~~~~~~~~~~~~~~~-|
G-9~~~~~~~~~~~~~~~~~~~~~~~~~~~~~~~~~~~~~|~~~~~~~~~~~~~~~~~~~~~~~~~~~~~~~~~~~~~~-|
C-9~~~~~~~~~~~~~~~~~~~~~~~~~~~~~~~~~~~~~|~~~~~~~~~~~~~~~~~~~~~~~~~~~~~~~~~~~~~~-|



Tab Legend
h  -  hammer-on
p  -  pull-off
/  -  slide up
\  -  slide down
ps/-  pickslide up
ps\-  pickslide down
~  -  let ring
pm.-  palm mute
b  -  bend
r  -  return from bend
*  -  harmonic
x  -  dead note
^ -  Whammy bar

That's it! Check out my cover, and tell me how I did whether you're a Deuce or Danny
fan. Thanks, oh and one last thing... ROCK OUT!!!!
Добавлено: 30.05.2012
Другие материалы по этой песне:
  • Аккорды и текст

Страница создана 30.05.2012
http://primanota.ru/hollywood-undead/scava-chords.htm
Привет, Гость.
Предлагаем пройти революционный курс по гитаре.
Подарок от PrimaNota.Ru, забирай!