PrimaNota.ru - самый крупный в мире бесплатный архив песенных текстов, аккордов, табулатур и нот


Hollywood Undead - Lights Out - текст песни, таба, видео

Регистрация Запомнить меня
Войти через:  Facebook Google Twitter Vk Yandex Mail.ru

Hollywood Undead - Lights Out - текст песни, таба, видео

Печатать
Просмотров: 647
Hollywood Undead
Lights Out
American Tragety
Drop D

Intro 0:00 - 0:19 (repeated over and over)
e-----------------------|
b-----------------------|
g-----------------------|
d-33-56-----------------|  OR
a-33-56-----------------|
d-33-56-----------------|

(repeated over and over) Which ever you think sounds best
e----------------------|
b----------------------|
g----------------------|
d----------------------|
a----------------------|
d-33-56----------------|

0:20 -
Chorus
e--------------------|
b--------------------|
g--------------------|
d-3-6-8-3------------|
a-3-6-8-3-(2x)-------|
d-3-6-8-3------------|

0:38(its played fast after the 1st chorus, listen closley to hear it)
e---------------------|
b---------------------|
g---------------------|
d---------------------|
a-6-8-----------------|
d---------------------|

0:39 - 1:19
Verse
e-----------------------------------------------|
b-----------------------------------------------|
g-----------------------------------------------|
d-3333333333-6666666666-8888888888-3333333333---|
a-3333333333-6666666666-8888888888-3333333333---|
d-3333333333-6666666666-8888888888-3333333333---|
P.M.(the whole verse)

chorus/verse same as ^
                     |
2:37 - 2:57
Bridge
e---------------------------|
b---------------------------|
g-----------------10----10--|
d-11-----8-----33----33-----|   OR
a-11(8x)-8(8x)-33----33-----|
d-11-----8-----33----33-----|
          P.M. ..    ..

e----------------------------|
b----------------6----6------|
g-6-----3--------------------|
d-6(8x)-3(8x)-33---33--------|
a-4-----1-----33---33--------|
d-------------33---33--------|
         P.M. ..   ..

2:58 - 3:04
Ending part to the Bridge
e-----------------------------------|
b-----------------------------------|
g-----------------------------------|
d-6--------1-11111------------------|
a-6(8-10x)-1-11111-("1" not "11")---|
d-6--------1-11111------------------|
       P.M.  .....

Outro ( i haven't figured out the solo at the end but once i do ill post it on here)
e-----------------------|
b-----------------------|
g-----------------------|
d-----------------------|
a-----------------------|
d-----------------------|

I just bought this cd like 30 minutes ago, and love every song on it and i just had to 
tab out songs for it this is 100% correct im positive, please comment and rate, ENJOY!
Добавлено: 09.11.2013
Другие материалы по этой песне:
  • Аккорды и текст

Страница создана 09.11.2013
http://primanota.ru/hollywood-undead/lights-out-chords.htm
Привет, Гость.
Предлагаем пройти революционный курс по гитаре.
Подарок от PrimaNota.Ru, забирай!