PrimaNota.ru - самый крупный в мире бесплатный архив песенных текстов, аккордов, табулатур и нот


Hollywood Rose - Rocker - таба, видео

Регистрация Запомнить меня
Войти через:  Facebook Google Twitter Vk Yandex Mail.ru

Hollywood Rose - Rocker - таба, видео

Печатать
Просмотров: 109
Artist: Hollywood Rose (pre-Guns N Roses)
Track:  Rocker [Original Demo Version]
Album:  The Roots Of Guns N' Roses [2004]

tabbed by luchadore@luukku.com

sorry, i didn't have time to figure out the complete solo,
but i'm working on it. that's some of the song i'm not sure
if it's perfect but it sounds good to me......
Have fun learning this song !!

Tuning: (E A D G B E) -- Standard


intro:


     p
E-------|--------------------------------------------------------------|
A-------|--------------------------------------------------------------|
D-------|--------------------------------------------------------------|
G-------|--------------------------------------------------------------|
B-------|----------------------------------------------------------5-7-|
E--17\--|--5h7-7-7-7-7-7-7-5h7-7-7-7-7-7-7-5h7-7-7-7-7-7-7-5h7-7-7-----|

                                  |--------------PM---------------------|
------------------------------------------------------------------|-----|
------------------------------------------------------------------|-----|
------------------------------------------------------------------|-----|
------------------------------------------------------------------|-----|
------------------------------------------------------------------|-----|
--5h7-7-7-7-7-7-7-5h7-7-7-7-7-7-7-3-3-3-3-3-3-3-3-3-3-3-3-3-3-3-3-|-x2--|


-|---------------------------------------------------------------------|
-|---------------------------------------------------------------------|
-|---------------------------------------------------------------------|
-|---------------------------------------------------------------------|
-|----------------------------------------------------------5-7--------|
-|--5h7-7-7-7-7-7-7-5h7-7-7-7-7-7-7-5h7-7-7-7-7-7-7-5h7-7-7------------|

                                  W           W
-------------------------------------|---------------------------------|
-------------------------------------|---------------------------------|
-------------------------------------|---------------------------------|
-------------------------------------|---------------------------------|
----------------------------------5--|--------7------------------------|
--5h7-7-7-7-7-7-7-5h7-7-7-7-7-7-7-3--|-x2-----5------------------------|

interlude:

     yeah
                                      W
--|------------------------------------------|-------------------------|
--|------------------------------------------|-------------------------|
--|------------------------------------------|-------------------------|
--|-------------------------------------7----|-------------------------|
--|--9-9-9-9-9-9-9-9-9-9-9-9-9-9-9-5--7-5-7--|-------------------------|
--|--7-7-7-7-7-7-7-7-7-7-7-7-7-7-7-3--5---5--|-------------------------|


    |---------PM--------------------------------------------------------|    H W
-------------------------------------------|----------------------------|
-------------------------------------------|----------------------------|
-------------------------------------------|----------------------------|
-----------------------------------7-7-7---|----------------------------|
--9---------------------------7-5--7-7-7---|----------------------------|
--7-7-7-7-7-7-7-7-7-7-7-7-7-7-5-3--5-5-5---|----------------------------|


verse:

  All right..         we'll fight..
  W     W               |--------PM-------------------------------------|      H W
-------------------|--------------------------------------------|-------|
-------------------|--------------------------------------------|-------|
-------------------|--------------------------------------------|-------|
--------------7----|--------------------------------------7-----|-------|
--9---7\5---7-5-7--|--9---------------------------7-5---7-5-7---|-------|
--7---5\3---5---5--|--7-7-7-7-7-7-7-7-7-7-7-7-7-7-5-3---5---5---|-------|


       We know..    You know..      We know..    You know..
     W            W               W            Wp
--|--------------------------------------------------------------------|
--|--------------------------------------------------------------------|
--|--------------------------------------------------------------------|
--|--------------------------------------------------------------------|
--|--4----------4/5-------------5/6----------6/7\----------------------|
--|--2----------2/3-------------3/4----------4/5\----------------------|

chorus:

     rocker  roller  rocker  roll    (back to interlude)
     W       W       W       W   W
--|-----------------------------------|---|
--|-----------------------------------|---|
--|-----------------------------------|---|
--|-----------------------------------|---|
--|--9-------9-------9-----7h5---7----|---|
--|--7-------7-------7-----5h3---5----|---|

solo: gtr 1

     yeah (at 2nd chorus ending)

--|---------------------------------------------------|----------------|
--|---------------------------------------------------|----------------|
--|---------------------------------------------------|----------------|
--|---------------------------------------------------|----------------|
--|--9-9-9-9-9-11-12-12-12-12-12-13-14-14h12-11-12-9--|----------------|
--|--7-7-7-7-7-9--10-10-10-10-10-11-12-12h10-9--10-7--|-x8-------------|


     W            W               W            Wp
--|--------------------------------------------------------------------|
--|--------------------------------------------------------------------|
--|--------------------------------------------------------------------|
--|--------------------------------------------------------------------|
--|--4----------4/5-------------5/6----------6/7\----------------------|
--|--2----------2/3-------------3/4----------4/5\----------------------|


Outro:

gtr 1
       Come on and roll       I want you to roll  tonight   hahaha..
     W                      W
--|--------------------------------------------------------------------|
--|--------------------------------------------------------------------|
--|--------------------------------------------------------------------|
--|------------------7------------------------7------------------------|
--|--5-------------7-5-7----5---------------7-5-7-9\-------------------|
--|--3-------------5---5----3---------------5---5-7\-------------------|


gtr 2

     W                      W                     W(let ring)        p
--|--------------------------------------------------------------------|
--|--------------------------------------------------------------------|
--|--------------------------------------------------------------------|
--|------------------7------------------------7------------------------|
--|--5-------------7-5-7----5---------------7-5-7-9------------------9-|
--|--3-------------5---5----3---------------5---5-7------------------7-|


Course:

intro
interlude
verse
chorus
interlude
verse
chorus
solo
chorus
verse
chorus
outro

________________________________________________________________

Lyrics:

All right, you're ready to roll
We'll fight today, come on let's go

We know who you are
You know who we are
We know who you are
You know our game

Rocker roller
Rocker roll, yeah

We've got the hair, the plan, the tattooed skin
You know we were born to win, yeah

We know who you are
You know who we are
We know who you are
You know our game

Rocker roller
Rocker roll, yeah

Rocker roller
Rocker roll
We are cool, we're nobody's fool
You know we were born to rule

We know who you are
You know who we are
We know who you are
You know our game

Rocker roller
Rocker roll
Rocker roller
Rocker roll

Come on and roll
I want you to roll tonight

_______________________________________________________________


Notes:

Duration Legend
---------------
W - whole
H - half
Q - quarter
E - 8th
S - 16th
T - 32nd
X - 64th
. - note dotted
|-n-|  - n-tuplets


Tablature Legend
----------------
L - tied note
x - dead note
g - grace note
(n) - ghost note
> - accentuded note
NH - natural harmonic
AH - artificial harmonic
TH - tapped harmonic
SH - semi harmonic
PH - pitch harmonic
h - hammer on
p - pull off
b - bend
br - bendRelease
pb - preBend
pbr - preBendRelease
brb - bendReleaseBend
\n/ - tremolo bar dip
\n - tremolo bar dive
-/n - tremolo bar Release up
/n\ - tremolo bar inverted dip
/n - tremolo bar return
-\n - tremolo bar Release down
S - shift slide
s - legato slide
/ -  slide into from below or out of upwards
\ -  slide into from above or out of downwards
~ - vibrato
W - wide vibrato
tr - trill
TP - tremolo picking
T - tapping
S - slap
P - pop
< - fade in
^ - brush up
Добавлено: 09.03.2012
Вам также может быть интересно:
Другие материалы по этой песне:
  • Аккорды и текст

Страница создана 09.03.2012
http://primanota.ru/hollywood-rose/rocker-chords.htm
Привет, Гость.
Предлагаем пройти революционный курс по гитаре.
Подарок от PrimaNota.Ru, забирай!