PrimaNota.ru - самый крупный в мире бесплатный архив песенных текстов, аккордов, табулатур и нот


Hollywood Porn Stars - B B - аккорды и текст, видео

Регистрация Запомнить меня
Войти через:  Facebook Google Twitter Vk Yandex Mail.ru

Hollywood Porn Stars - B B - аккорды и текст, видео

Печатать
Просмотров: 115
B B
Hollywood Porn Stars
Song: B.B.
Band: Hollywood Porn Stars
Album: Year Of The Tiger
Year: 2005
Tabber: beranger80@hotmail.com



Intro (0:00)

Bbm  Ab  F  F#  D#m  F  
Bbm  Ab  F  F



Verse (0:26)

Bbm                    Ab
Right aside, there's a hole
        F                         F#      
Where drunken people stand on their own
D#m               F
Smoky trains, moutains burn
Bbm                  Ab         F
It's time to play the money, luck should turn

Bbm                    Ab
Nights in black, days are short,
        F                         F#     
The skin gets old, you're no more a rose
D#m               F
Written past, no control
Bbm                    Ab          F
Never knew from heaven stars should fall



Chorus (1:18)

                     F#
Don't go missing your part
                D#m
Jumping over the hole
                 F
Are you ready to fall
                    F#
Down for national pray
                 D#m
Game is over they say
                    F
Dades ares loaded away
                    F#
Wear your beautiful coat
                   D#m
Time to party and roll
                         F
Kiss the cross, beg for hope



Verse (1:49)

Bbm                    Ab
Photographs, parts of life
        F                         F#  
The moment's all your money can't buy
D#m               F
Younger face, shiny look
Bbm                  Ab     F
And most important someone near you smiles

Bbm                    Ab
Have some rest, golden dreams
        F                         F#   
No more white hair, you're just nineteen
D#m               F
Run to her, knock on the door
Bbm                    Ab          F
Wishing she's still lying on the floor



Chorus (2:42)

                     F#
Don't go missing your part
                D#m
Jumping over the hole
                 F
Are you ready to fall
                    F#
Down for national pray
                 D#m
Game is over they say
                    F
Dades ares loaded away
                    F#
Wear your beautiful coat
                   D#m
Time to party and roll
                         F
Kiss the cross, beg for hope



Solo (3:13)

e---------------------------------------------------|
b---------------------------------------------------|
g--11-11-11-11--------------------------------------|
d--------------11-11-11-11-13-13-13-13-15-15-15-15--|
a---------------------------------------------------|
e---------------------------------------------------|

e-----------------------------------------------|
b-----------------------------------------------|
g--11-11-11-11----------------------------------|
d--------------8-8-8-8-10-10-10-10-11-11-11-11--|
a-----------------------------------------------|
e-----------------------------------------------|

e---------------------------------------------------|
b---------------------------------------------------|
g--10-10-10-10--------------------------------------|
d--------------10-10-10-10-11-11-11-11-13-13-13-13--|
a---------------------------------------------------|
e---------------------------------------------------|
Play this part two times


3:33
e------------------------------------------|
b------------------------------------------|
g--11-11--11-------------------------------|
d------------11-11--11-13-13--13-15-15-15--|
a------------------------------------------|
e------------------------------------------|


e-------------------------------------------|
b-------------------------------------------|
g--11-11--11--------------------------------|
d------------8-8--8-10-10--10--11-11-11-11--|
a-------------------------------------------|
e-------------------------------------------|
                                                  End on:
e------------------------------------------|     |------|
b------------------------------------------|     |------|
g--10-10--10-------------------------------|     |--11--|
d------------10-10--10-11-11--11-13-13-13--|     |------|
a------------------------------------------|     |------|
e------------------------------------------|     |------|
Play this part two times
Добавлено: 31.07.2015
Другие материалы по этой песне:
  • Аккорды и текст

Страница создана 31.07.2015
http://primanota.ru/hollywood-porn-stars/b-b-chords.htm
Привет, Гость.
Предлагаем пройти революционный курс по гитаре.
Подарок от PrimaNota.Ru, забирай!