PrimaNota.ru - самый крупный в мире бесплатный архив песенных текстов, аккордов, табулатур и нот


Hollows - The Pool Stumble On Tapes - таба, видео

Регистрация Запомнить меня
Войти через:  Facebook Google Twitter Vk Yandex Mail.ru

Hollows - The Pool Stumble On Tapes - таба, видео

Печатать
Просмотров: 20
-------------------------------------------------------------------------------
                             THE POOL - Slow Hollows
-------------------------------------------------------------------------------
Tabbed by: Angel T.
E-mail: atapia@hightechhigh.org

Tuning: Standard Tuning with capo on 4th (All numbers relative to capo)
INTRO:
e|---------------------------------------------------------------------------|
B|---------------------------------------------------------------------------|
G|---------------------------------------2-0-2-0-----------------------------|
D|-------0h2p0-----------------0h2p0-----------------------------------------|
A|-3---3-------3-0-------3---3-------3-0-------------------------------------|
E|---------------------------------------------------------------------------|
                                                                C   
e|--------------------------------------------------------------0------------|
B|--------------------------------------------------------------1------------|
G|-----------------------------------------------2-0---0--------0------------|
D|-------0h2p0-----3-0-3-0-------------0h2p0---------2---0h2p0--2------------|
A|-3---3-------3-0---------------3---3-------3-0----------------3------------|
E|--------------------------------------------------------------x------------|
SONG BEGINS:
e|---------------------------------------------------------------------------|
B|---------------------------------------------------------------------------|
G|------------------------------------------------------------------2-0-2-0--|
D|-------0h2p0-------------------0h2p0---------------------0h2p0-------------|
A|-3---3-------3-0-0-0-0----3---3-----3-0-0-0-0-------3---3-----3-0----------|
E|---------------------------------------------------------------------------|
   F F F F   Dm         C
e|-1-1-1-1---1-1-1-1----0----------------------------------------------------|
B|-1-1-1-1---3-3-3-3----1----------------------------------------------------|
G|-2-2-2-2---2-2-2-2----0----------------------------------------------------|
D|-3-3-3-3---x-x-x-x----2----------------------------------------------------|
A|-x-x-x-x---x-x-x-x----3----------------------------------------------------|
E|-x-x-x-x---x-x-x-x----x----------------------------------------------------|

VERSE:
    C     Am      C     Am      C     Am      F F F F      Dm           C
e|--0-----0-------0-----0-------0-----0-------1-1-1-1------1-1-1-1------0----|
B|--1-----1-------1-----1-------1-----1-------1-1-1-1------3-3-3-3------1----|
G|--0-----2-------0-----2-------0-----2-------2-2-2-2------2-2-2-2------0----|
D|--2-----2-------2-----2-------2-----2-------3-3-3-3------x-x-x-x------2----|
A|--3-----0-------3-----0-------3-----0-------x-x-x-x------x-x-x-x------3----|
E|--x-----x-------x-----x-------x-----x-------x-x-x-x------x-x-x-x------x----|

AFTER CHORUS:
e|---------------------------------------------------------------------------|
B|---------------------------------------------------------------------------|
G|------------------------------------------------------------------2-0-2-0--|
D|-------0h2p0-------------------0h2p0---------------------0h2p0-------------|
A|-3---3-------3-0-0-0-0----3---3-----3-0-0-0-0-------3---3-----3-0----------|
E|---------------------------------------------------------------------------|
   F F F F   Dm         C
e|-1-1-1-1---1-1-1-1----0----------------------------------------------------|
B|-1-1-1-1---3-3-3-3----1----------------------------------------------------|
G|-2-2-2-2---2-2-2-2----0----------------------------------------------------|
D|-3-3-3-3---x-x-x-x----2----------------------------------------------------|
A|-x-x-x-x---x-x-x-x----3----------------------------------------------------|
E|-x-x-x-x---x-x-x-x----x----------------------------------------------------|

SOLO:
e|-12-12-12-12-12----------------12-12-12-12-12------------------------------|
B|----------------14-14-14-14-14----------------12-14-12---------------------|
G|---------------------------------------------------------------------------|
D|---------------------------------------------------------------------------|
A|---------------------------------------------------------------------------|
E|---------------------------------------------------------------------------|

e|-12-12-12-12-12------------------------------------------------------------|
B|----------------14-14-14-14-14---------------------------------------------|
G|---------------------------------------------------------------------------|
D|---------------------------------------------------------------------------|
A|---------------------------------------------------------------------------|
E|---------------------------------------------------------------------------|

OUTRO:                                C
e|------------------------------------0--------------------------------------|
B|------------------------------------1--------------------------------------|
G|---0-2-0-------0---------0----------0--------------------------------------|
D|-2-----------2---2-----2---0h2p0----2--------------------------------------|
A|---------------------------------3--3--------------------------------------|
E|------------------------------------x--------------------------------------|

RHYTHM GUITAR PLAYS: 
RHYTHM GUITAR HAS NO CAPO AND IS IN STANDARD TUNING.
   E  C#Dbm  E  C#Dbm  E  C#Dbm   A A A A  F# F# F#   E
e|-0----4----0----4----0----4-----5-5-5-5--2-2-2-2----0----------------------|
B|-0----5----0----5----0----5-----5-5-5-5--2-2-2-2----0----------------------|
G|-1----6----1----6----1----6-----6-6-6-6--3-3-3-3----1----------------------|
D|-2----6----2----6----2----6-----7-7-7-7--4-4-4-4----2----------------------|
A|-2----4----2----4----2----4-----7-7-7-7--4-4-4-4----2----------------------|
E|-0----x----0----x----0----x-----5-5-5-5--2-2-2-2----0----------------------|




************************************

| /   slide up
| \   slide down
| h   hammer-on
| p   pull-off
| ~   vibrato
| +   harmonic
| x   Mute note
| b   Bend
| pb  Pre-bend
| br  Bend release
| pbr Pre-bend release
| brb Bend release bend

************************************
Добавлено: 17.06.2016
Вам также может быть интересно:
Другие материалы по этой песне:
  • Аккорды и текст

Страница создана 17.06.2016
http://primanota.ru/hollows/pool-stumble-on-tapes-chords.htm
Привет, Гость.
Предлагаем пройти революционный курс по гитаре.
Подарок от PrimaNota.Ru, забирай!