PrimaNota.ru - самый крупный в мире бесплатный архив песенных текстов, аккордов, табулатур и нот


Hollies - Reflections Of A Time Long Past - таба, видео

Регистрация Запомнить меня
Войти через:  Facebook Google Twitter Vk Yandex Mail.ru

Hollies - Reflections Of A Time Long Past - таба, видео

Печатать
Просмотров: 109
---------------------------------------------------------------------------
           Reflections of a time long past - The Hollies
---------------------------------------------------------------------------
Tabbed by:deHufter
Email:kurtkill@hotmail.com

These tabs are pianotranscriptions for the guitar. Some parts are just
impossible to play on only one guitar, so ask a friend to play along:)
If you're really a diehard, you can try to learn it on only one guitar,
but i'm afraid you'll have to change some positions on the neck, cause
i tabbed this in the most simple way for the left and right hand
seperately. Goodluck with it!

Tuning:drop C

Left hand intro:
e|-------------------------------------------------------------------------|
B|-------------------------------------------------------------------------|
G|-------------------------------------------------------------------------|
D|-------------------------------------------------------------------------|
A|-------------------------------------------------------------------------|
C|--2/7--7\1--1--0---0---2~------------------------------------------------|

Right hand intro:
e|---------3-------------3---------------------2-5-2-5-8-5-2---------------|
B|-------3---3---------2---2----------5----------------------3-------------|
G|-----3-------3-----3-------3----3-5---5-3--------------------------------|
D|---5-------------5------------5------------------------------------------|
A|-------------------------------------------------------------------------|
C|-------------------------------------------------------------------------|

Left hand verse:
e|-------------------------------------------------------------------------|
B|-------3-------3-------3-------3-------3-------3---------1-------1-------|
G|-----3---3---3---3---3---3---3---3---3---3---3---3-----3---3---3---3-----|
D|---5-------5-------4-------4-------3-------3---------2-------2-----------|
A|-------------------------------------------------------------------------|
C|-------------------------------------------------------------------------|

e|-------------------------------------------------------------------------|
B|-------1-------1-------1-------1-------3-------3-------3-------3---------|
G|-----2---2---2---2---2---2---2---2---3---3---3---3---3---3---3---3-------|
D|---1-------1-------0-------0-------5-------4-------3-------4-------------|
A|-------------------------------------------------------------------------|
C|-------------------------------------------------------------------------|

Right hand verse:
e|---3--10~-10~--8p6-8-10-3~---3--8~--8-10-5~-5p3h5--5-6-5-6-5-3-----------|
B|---------------------------------------------------------------3~--------|
G|-------------------------------------------------------------------------|
D|-------------------------------------------------------------------------|
A|-------------------------------------------------------------------------|
C|-------------------------------------------------------------------------|

Left hand chorus:
e|-------------------------------------------------------------------------|
B|-------------------------------------------------------------------------|
G|-------5-------5--------7-------5-------3-------3----------5-------5-----|
D|-----5---5---5---5----7---7---7---7---5---5---5---5----4-7-----4-7-------|
A|---6-------6--------5-------5-------3-------3--------5-------5-----------|
C|-------------------------------------------------------------------------|

Right hand chorus:
e|--15~--11-13-15-11-13-10~---11~--8-10-11-8-10~---------------------------|
B|-------------------------------------------------------------------------|
G|-------------------------------------------------------------------------|
D|-------------------------------------------------------------------------|
A|-------------------------------------------------------------------------|
C|-------------------------------------------------------------------------|

Right hand bridge to verse:
e|--5-6-5-3-2-5-3~---------------------------------------------------------|
B|-------------------------------------------------------------------------|
G|-------------------------------------------------------------------------|
D|-------------------------------------------------------------------------|
A|-------------------------------------------------------------------------|
C|-------------------------------------------------------------------------|
Добавлено: 18.06.2012
Другие материалы по этой песне:
  • Аккорды и текст

Страница создана 18.06.2012
http://primanota.ru/hollies/reflections-of-a-time-long-past-chords.htm
Привет, Гость.
Предлагаем пройти революционный курс по гитаре.
Подарок от PrimaNota.Ru, забирай!