PrimaNota.ru - самый крупный в мире бесплатный архив песенных текстов, аккордов, табулатур и нот


Hollies - Carrie Ann - бас-таба, видео

Регистрация Запомнить меня
Войти через:  Facebook Google Twitter Vk Yandex Mail.ru

Hollies - Carrie Ann - бас-таба, видео

Печатать
Просмотров: 73
h/hollies/carrie_ann.btab

Basstab by Jan Bjorklund, Finland  jani_bjorklund@yahoo.se>
You are welcome to request for basstabs!
Bienvenidos a pedirme transcripciones para el bajo!
Fingering and positions as suggested by TablEdit. 

TablEdited by Jan Bjorklund
Tuning : E A D G 	Time Signature: 4/4

 |       |       |       |        |       |       |       |        
|--------------------------------|--------------------------------|
|--------------------------------|--------------------------------|
|--------------------3---3---2-0-|--------------------------------|
|--------------------------------|3---3---3---3---3---3---3---3---|

 |       |       |       |        |       |       |       |        
|--------------------------------|--------------------------------|
|--------------------------------|--------------------------------|
|3---3---3---3---3---3---3---2-0-|--------------------------------|
|--------------------------------|3---3---3---3---3---3---3---3---|

 |       |       |       |        |       |       |       |        
|--------------------------------|--------------------------------|
|--------------------------------|--------------------------------|
|3---3---3---3---3---3---3---2-0-|--------------------------------|
|--------------------------------|3---3---3---3---3---3---3---3---|

 |       |       |       |        |       |       |       |        
|--------------------------------|--------------------------------|
|--------------------------------|--------------------------------|
|3---3---3---3---3---3---3---2-0-|--------------------------------|
|--------------------------------|3---3---3---3---3---3---3---3---|

 |       |       |       |        |       |       |       |        
|--------5-------2---------------|--------5-------2---------------|
|------------5-----------5-------|------------5-----------5-------|
|3-------------------------------|3-------------------------------|
|--------------------------------|--------------------------------|

 |       |       |       |        |       |       |       |        
|--------5-------2---------------|--------5-------2---------------|
|------------5-----------5-------|------------5-----------5-------|
|3-------------------------------|3-------------------------------|
|--------------------------------|--------------------------------|

 |       |       |       |        |       |       |       |        
|--------5-------2---------------|--------5-------2---------------|
|------------5-----------5-------|------------5-----------5-------|
|3-------------------------------|3-------------------------------|
|--------------------------------|--------------------------------|

 |       |       |       |        |       |       |       |        
|--------5-------2---------------|0-------0-------0-------0-------|
|------------5-----------5-------|--------------------------------|
|3-------------------------------|--------------------------------|
|--------------------------------|--------------------------------|

 |       |       |       |        |       |       |       |        
|--------------------------------|0-------0-------0-------0-------|
|----------------3-------3---4---|--------------------------------|
|3-------------------------------|--------------------------------|
|--------------------------------|--------------------------------|

 |       |       |       |        |       |       |       |        
|--------------------------------|0-------0-------0-------0-------|
|----------------3-------3---4---|--------------------------------|
|3-------------------------------|--------------------------------|
|--------------------------------|--------------------------------|

 |       |       |       |        |       |       |       |        
|--------------------------------|0-------0-------0-------0-------|
|----------------3-------3---4---|--------------------------------|
|3-------------------------------|--------------------------------|
|--------------------------------|--------------------------------|

 |       |       |       |        |       |       |       |        
|--------------------------------|0-------0-------0-------0-------|
|----------------3-------3---4---|--------------------------------|
|3-------------------------------|--------------------------------|
|--------------------------------|--------------------------------|

 |       |       |       |        |       |       |       |        
|--------5-------2---------------|--------5-------2---------------|
|------------5-----------5-------|------------5-----------5-------|
|3-------------------------------|3-------------------------------|
|--------------------------------|--------------------------------|

 |       |       |       |        |       |       |       |        
|--------5-------2---------------|--------5-------2---------------|
|------------5-----------5-------|------------5-----------5-------|
|3-------------------------------|3-------------------------------|
|--------------------------------|--------------------------------|

 |       |       |       |        |       |       |       |        
|--------5-------2---------------|--------5-------2---------------|
|------------5-----------5-------|------------5-----------5-------|
|3-------------------------------|3-------------------------------|
|--------------------------------|--------------------------------|

 |       |       |       |        |       |       |       |        
|--------5-------2---------------|0-------0-------0-------0-------|
|------------5-----------5-------|--------------------------------|
|3-------------------------------|--------------------------------|
|--------------------------------|--------------------------------|

 |       |       |       |        |       |       |       |        
|--------------------------------|0-------0-------0-------0-------|
|----------------3-------3---4---|--------------------------------|
|3-------------------------------|--------------------------------|
|--------------------------------|--------------------------------|

 |       |       |       |        |       |       |       |        
|--------------------------------|0-------0-------0-------0-------|
|----------------3-------3---4---|--------------------------------|
|3-------------------------------|--------------------------------|
|--------------------------------|--------------------------------|

 |       |       |       |        |       |       |       |        
|--------------------------------|0-------0-------0-------0-------|
|----------------3-------3---4---|--------------------------------|
|3-------------------------------|--------------------------------|
|--------------------------------|--------------------------------|

 |       |       |       |        |       |       |       |        
|--------------------------------|0-------0-------0-------0-------|
|----------------3-------3---4---|--------------------------------|
|3-------------------------------|--------------------------------|
|--------------------------------|--------------------------------|

 |       |       |       |        |       |       |       |        
|--------------------------------|------------------------0---2---|
|3-------3---------------0---2---|3-------3-----3-----3-----------|
|----------------3---3-----------|----------------3---------------|
|--------------------------------|--------------------------------|

 |       |       |       |        |       |       |       |        
|3-------3-----3-----3---2---0---|--------------------------------|
|----------------3---------------|3-------3-----3---------0---2---|
|--------------------------------|----------------3---3-----------|
|--------------------------------|--------------------------------|

 |       |       |       |        |       |       |       |        
|--------------------------------|------------------------0---2---|
|3-------3-----3---------0---2---|3-------3-----3-----3-----------|
|----------------3---3-----------|----------------3---------------|
|--------------------------------|--------------------------------|

 |       |       |       |        |       |       |       |        
|3---3---3---3---3---3---3---3---|0---0---0---0---0---0---0---0---|
|--------------------------------|--------------------------------|
|--------------------------------|--------------------------------|
|--------------------------------|--------------------------------|

 |       |       |       |        |       |       |       |        
|0---0---0---0---0---0---0---0---|--------5-------2---------------|
|--------------------------------|------------5-----------5-------|
|--------------------------------|3-------------------------------|
|--------------------------------|--------------------------------|

 |       |       |       |        |       |       |       |        
|--------5-------2---------------|--------5-------2---------------|
|------------5-----------5-------|------------5-----------5-------|
|3-------------------------------|3-------------------------------|
|--------------------------------|--------------------------------|

 |       |       |       |        |       |       |       |        
|--------5-------2---------------|--------5-------2---------------|
|------------5-----------5-------|------------5-----------5-------|
|3-------------------------------|3-------------------------------|
|--------------------------------|--------------------------------|

 |       |       |       |        |       |       |       |        
|--------5-------2---------------|--------5-------2---------------|
|------------5-----------5-------|------------5-----------5-------|
|3-------------------------------|3-------------------------------|
|--------------------------------|--------------------------------|

 |       |       |       |        |       |       |       |        
|0-------0-------0-------0-------|--------------------------------|
|--------------------------------|----------------3-------3---4---|
|--------------------------------|3-------3-----------------------|
|--------------------------------|--------------------------------|

 |       |       |       |        |       |       |       |        
|0-------0-------0-------0-------|--------------------------------|
|--------------------------------|----------------3-------3---4---|
|--------------------------------|3-------3-----------------------|
|--------------------------------|--------------------------------|

 |       |       |       |        |       |       |       |        
|0-------0-------0-------0-------|--------------------------------|
|--------------------------------|----------------3-------3---4---|
|--------------------------------|3-------3-----------------------|
|--------------------------------|--------------------------------|

 |       |       |       |        |       |       |       |        
|0-------0-------0-------0-------|--------------------------------|
|--------------------------------|----------------3-------3---4---|
|--------------------------------|3-------3-----------------------|
|--------------------------------|--------------------------------|

 |       |       |       |        |       |       |       |        
|0-------0-------0-------0-------|--------5-------2---------------|
|--------------------------------|------------5-----------5-------|
|--------------------------------|3-------------------------------|
|--------------------------------|--------------------------------|

 |       |       |       |        |       |       |       |        
|--------5-------2---------------|--------5-------2---------------|
|------------5-----------5-------|------------5-----------5-------|
|3-------------------------------|3-------------------------------|
|--------------------------------|--------------------------------|

 |       |       |       |        |       |       |       |        
|--------5-------2---------------|--------5-------2---------------|
|------------5-----------5-------|------------5-----------5-------|
|3-------------------------------|3-------------------------------|
|--------------------------------|--------------------------------|

 |       |       |       |        |       |       |       |        
|--------5-------2---------------|--------5-------2---------------|
|------------5-----------5-------|------------5-----------5-------|
|3-------------------------------|3-------------------------------|
|--------------------------------|--------------------------------|

 |       |       |       |        |       |       |       |        
|0-------0-------0-------0-------|--------------------------------|
|--------------------------------|----------------3-------3---4---|
|--------------------------------|3-------3-----------------------|
|--------------------------------|--------------------------------|

 |       |       |       |        |       |       |       |        
|0-------0-------0-------0-------|--------------------------------|
|--------------------------------|----------------3-------3---4---|
|--------------------------------|3-------3-----------------------|
|--------------------------------|--------------------------------|

 |       |       |       |        |       |       |       |        
|0-------0-------0-------0-------|--------------------------------|
|--------------------------------|----------------3-------3---4---|
|--------------------------------|3-------3-----------------------|
|--------------------------------|--------------------------------|

 |       |       |       |        |       |       |       |        
|0-------0-------0-------0-------|--------------------------------|
|--------------------------------|----------------3-------3---4---|
|--------------------------------|3-------3-----------------------|
|--------------------------------|--------------------------------|

 |       |       |       |        |       |       |       |        
|0-------0-------0-------0-------|--------------------------------|
|--------------------------------|3---3---3---3---3---3---3---3---|
|--------------------------------|--------------------------------|
|--------------------------------|--------------------------------|

 |       |       |       |        |       |       |       |        
|--------------------------------|--------------------------------|
|2---2---2---2---2---2---2---2---|0---0---0---0---0---------------|
|--------------------------------|------------------------0---2---|
|--------------------------------|--------------------3-----------|

 |       |       |       |        |       |       |       |        
|--------------------------------|--------------------------------|
|--------------------------------|--------------------------------|
|3-------------------------------|--------------------------------|
|--------------------------------|--------------------------------|


Created with TablEdit http://www.tabledit.com/

............................................................
     
Добавлено: 13.08.2013
Другие материалы по этой песне:
  • Аккорды и текст

Страница создана 13.08.2013
http://primanota.ru/hollies/carrie-ann-chords.htm
Привет, Гость.
Предлагаем пройти революционный курс по гитаре.
Подарок от PrimaNota.Ru, забирай!