PrimaNota.ru - самый крупный в мире бесплатный архив песенных текстов, аккордов, табулатур и нот


Holley Maher - Edies Balcony - аккорды и текст, видео

Регистрация Запомнить меня
Войти через:  Facebook Google Twitter Vk Yandex Mail.ru

Holley Maher - Edies Balcony - аккорды и текст, видео

Печатать
Просмотров: 86
Edies Balcony
Holley Maher
Edie's Balcony by Holley Maher Tab

Chords 
Asus2 = x0220 
E = 022100
Bsus2 = x2440x and sometimes x24422 (see below)
B = x24442 (see below)
G#m = 466444
D#5 = xx144x

(General Pattern)
(Note: Sometimes other notes in chord are picked)

  Asus2            E
e|----------------|----------------|
B|---0---0---0----|---0---0---0----|
G|-2---2---2---2-2|-1---1---1---1-1|
D|--2---2---2---2-|--2---2---2---2-|
A|0---------------|----------------|
E|----------------|0---------------|

  Bsus2
e|----------------|----------------|
B|---0---0---0----|---0---0---0----|
G|-4---4---4---4-4|-4---4---4---4-4|
D|--4---4---4---4-|--4---4---4---4-|
A|2---------------|2---------------|
E|----------------|----------------|

(Introduction)
Asus2 E Bsus2 Bsus2 (one bar each) (x2)

(Verse)
Asus2    E
  City below us
          Bsus2
City of summer skies
Asus2           E
  City can't touch us
                   Bsus2
With all of her shifting lights...
    Asus2         E                 Bsus2
Gentle glow, you know the heart of me
     Asus2                E                      Bsus2
Blinding lights, hold on tight to the secrets you keep

(Interlude)(x2)
    Asus2        E
Tim Dah ahh, Tim Dah ahh
                       Bsus2
Day Dum, Day Dup-a-Day Dum

(Verse)
Asus2       E
  Stories unfolding
              Bsus2
Stand by the fireside
Asus2          E
  Carefully holding
                   Bsus2
Words that we don't confide in anyone
  Asus2         E                      Bsus2
City lights, sunrise is waiting in the trees
    Asus2           E                    Bsus2
Endless night, you might have a hold on me, hmm...

(Interlude)(x2)
    Asus2        E
Tim Dah ahh, Tim Dah ahh
                       Bsus2
Day Dum, Day Dup-a-Day Dum

(Instrumental Interlude)
G#m E  Bsus2 Bsus2
    Ooh...
G#m E          Bsus2 Bsus2
   Ooh...Ahh...Ooh...Ahh
G#m Bsus2 G#m Bsus2
              Hmm...

(Ending Interlude)(x2)
    Asus2        E
Tim Dah ahh, Tim Dah ahh
                       Bsus2
Day Dum, Day Dup-a-Day Dum


(Alternate Bsus2 and B Patterns)
e|---2---2---2----|---0---0---0----|----------------|
B|----------------|----------------|---4---4---4----|
G|-4---4---4---4-4|-4---4---4-----4|-4---4---4---4-4|
D|--4---4---4---4-|--4---4---4---4-|--4---4---4---4-|
A|2---------------|2------------2--|2---------------|
E|----------------|----------------|----------------|


Tab Created by Frank Ulm fulm@ringwoodsc.vic.edu.au

YAY ☺ 
Добавлено: 10.05.2016
Другие материалы по этой песне:
  • Аккорды и текст

Страница создана 10.05.2016
http://primanota.ru/holley-maher/edies-balcony-chords.htm
Привет, Гость.
Предлагаем пройти революционный курс по гитаре.
Подарок от PrimaNota.Ru, забирай!