PrimaNota.ru - самый крупный в мире бесплатный архив песенных текстов, аккордов, табулатур и нот


Hollerado - Good Day At The Races - таба, видео

Регистрация Запомнить меня
Войти через:  Facebook Google Twitter Vk Yandex Mail.ru

Hollerado - Good Day At The Races - таба, видео

Печатать
Просмотров: 100
Уроки эстрадного вокала в Санкт-Петербурге
Song: Good Day at the Races
Artist: Hollerado
Album: Good Day at the Races

Tabbed by zaprox913

Key
b = bend
br = bend and release


e|------------------------------------------------------------|
B|--------13-----15------13-----------------------------------|
G|----14-----14-----14--------------14-12----14-14-12---------|
D|-15---------------------------15--------------------15------|
A|------------------------------------------------------------|
E|------------------------------------------------------------|x2


@0:09
e|-----------------------------------------|
B|-----------------------------------------|
G|-----------12--10------------12--10------|
D|-3--3--3---12--10---3--3--3--12--10------|
A|-3--3--3---10--8----3--3--3--10--8-------|
E|-1--1--1------------1--1--1--------------|


@0:13
e|------------------------------------------------------------|
B|------------------------------------------------------------|
G|-5---5----------5---5---------5---5-------------------------|
D|---7----7-5-7-----7---7-5-------7---7-5-7-----7--5--7--5----|
A|--------------------------8-----------------8------------8--|
E|------------------------------------------------------------|x2


@0:31
e|------------------------------------|
B|------------------------------------|
G|----------------------7-------------|
D|-3--3--3----3--3--3---7-------------|
A|-3--3--3----3--3--3---5-------------|
E|-1--1--1----1--1--1-----------------| x2


@0:39
e|-----------------------------------------|
B|-----------------------------------------|
G|-----------12--10------------12--10------|
D|-3--3--3---12--10---3--3--3--12--10------|
A|-3--3--3---10--8----3--3--3--10--8-------|
E|-1--1--1------------1--1--1--------------|


@0:43
e|------------------------------------------------------------|
B|------------------------------------------------------------|
G|-5---5----------5---5---------5---5-------------------------|
D|---7----7-5-7-----7---7-5-------7---7-5-7-----7--5--7--5----|
A|--------------------------8-----------------8------------8--|
E|------------------------------------------------------------|x2


@1:00
e|------------------------------------|
B|------------------------------------|
G|----------------------7-------------|
D|-3--3--3----3--3--3---7-------------|
A|-3--3--3----3--3--3---5-------------|
E|-1--1--1----1--1--1-----------------| x2


@1:18
e|------------------------------------------------------------|
B|--------13-----15------13-----------------------------------|
G|----14-----14-----14--------------14-12----14-14-12---------|
D|-15---------------------------15--------------------15------|
A|------------------------------------------------------------|
E|------------------------------------------------------------|x2

e|---------------------------------------------------------------|
B|--------------11----------------11-----------------11--b13-----|
G|----14-----14---------14----14---------14-----14----------14---|
D|-15----15----------15----15--------15------15------------------|
A|---------------------------------------------------------------|
E|---------------------------------------------------------------|

e|--------------------------------------------------------|
B|----13----13---15--15---13------------------------------|
G|-------14-------------14---14--14--12-------------------|
D|-15-----------------------------------15-15-12-12-------|
A|--------------------------------------------------15-12-|
E|--------------------------------------------------------|



@2:08
e|----------------------------------------|
B|----------------------------------------|
G|-7----5----3-----7-7-7-7h8p7--5---------|
D|-7----5----3--------------------7-------|
A|-5----3----1----------------------8-----|
E|----------------------------------------|


@2:25
*tremolo picking*
e|----------------------------------------------|
B|---6--8--10--13--10--13--15--13--10--8--------|
G|----------------------------------------------|
D|----------------------------------------------|
A|----------------------------------------------|
E|----------------------------------------------|

*normal picking*
e|---------------------------------|
B|-----------------------------13--|
G|-14----14----14---14------14-----|
D|----15----15---15----15----------|
A|---------------------------------|
E|---------------------------------|x2

e|-----------------------------------------------------------------|
B|----------------------------13-----13-13-13-13-13-13-13-13-13----|
G|-15-14-15-14-15-14-15-14--14-------------------------------------|
D|-----------------------------------------------------------------|
A|-----------------------------------------------------------------|
E|-----------------------------------------------------------------|

e|--------------------------15-----------------------------|
B|--b15------15br-15br-15br--------------------------------|
G|------14---------------------14----10-10-10-10-10-10-----|
D|---------------------------------------------------------|
A|---------------------------------------------------------|
E|---------------------------------------------------------|


@3:00
e|------------------------------------|
B|------------------------------------|
G|----------------------7-------------|
D|-3--3--3----3--3--3---7-------------|
A|-3--3--3----3--3--3---5-------------|
E|-1--1--1----1--1--1-----------------| x3
Добавлено: 04.01.2014
Другие материалы по этой песне:
  • Аккорды и текст

Страница создана 04.01.2014
http://primanota.ru/hollerado/good-day-at-the-races-chords.htm
Привет, Гость.
Предлагаем пройти революционный курс по гитаре.
Подарок от PrimaNota.Ru, забирай!