PrimaNota.ru - самый крупный в мире бесплатный архив песенных текстов, аккордов, табулатур и нот


Hollenthon - Woe To The Defeated - текст песни, таба, видео

Регистрация Запомнить меня
Войти через:  Facebook Google Twitter Vk Yandex Mail.ru

Hollenthon - Woe To The Defeated - текст песни, таба, видео

Печатать
Просмотров: 196
                      Hollenthon - Woe To the Defeated
                  From the Album - With Vilest of Worms to Dwell
                       Copyright - 2001 Napalm Records
                     Version 1.0 - (October 2001)

Transcribed by: Mike B.

For Questions, Comments, Newest Version, or Corrections contact
Steve S. - Setherial99@AOL.com

..  - palm mute          /  - slide up to
 \  - slide down to      ~  - vibrato
 h  - hammer on          b  - bend
 p  - pull off            Suffixes for bend
 T  - tap                 ph - pinch harmonic
                           f - full bend    h - half bend
*  - see comment           r - release      t - tap bend
X  - percussion mute       ~ - vibrato bend
@  - slight palm mute     () - ghost note, sustained note

Drop D

Woe to the Defeated

A
|--------------------------------------------------------------------|
|--------------------------------------------------------------------|
|--------------------------------------------------------------------|
|--2--2--------------2--2-2--3--x4-----------------------------------| 
|--2--2--------3-----2--2-2--3---------------------------------------|
|--2--2--0-2-3---3-0-2--2-2--3---------------------------------------|

B                                                                    
|-----------------------------|--------------------------------------|
|-----------------------------|--------------------------------------|
|-----------------------------|--------------------------------------| 
|--2-2--x-x--2-2--------------|--2--x-x--2---------------------------| 
|--2-2--x-x--2-2--------------|--2--x-x--2------------0--------------|
|--2-2--x-x--2-2--0-0-0-2-3-5-|--2--x-x--2--0-0-2-3-5---5-3----------|
|                               1,3                                  |
|-----------------------------|--------------------------------------|
|-----------------------------|--------------------------------------|
|-----------------------------|--------------------------------------|
|--2-2--x-x--2-2--------------|--2--x-x--2------3------3-------------| 
|--2-2--x-x--2-2--------------|--2--x-x--2------3------3-------------|
|--2-2--x-x--2-2--0-0-0-2-3-5-|--2--x-x--2--0-2-3--0-2-3-------------|
| 2          4                                                       |
|----------|----------------|-----------------|----------------------|
|----------|----------------|-----------------|----------------------|
|----------|----------------|-----------------|----------------------| 
|--Riff A--|--2--2--2-2--2--|--5--5--5--7--2--|--2--2--2-2--2--------| 
|---x2-----|--2--2--2-2--2--|--5--5--5--7--2--|--2--2--2-2--2--------|
|----------|--2--2--2-2--2--|--5--5--5--7--2--|--2--2--2-2--2--------|
|                                                                    |
|--------------------------------------------------------------------|
|--------------------------------------------------------------------|
|--------------------------------------------------------------------|
|--7--7--7--10--2----------------------------------------------------|
|--7--7--7--10--2----------------------------------------------------|
|--7--7--7--10--2----------------------------------------------------|

C
|------------------------------|-------------------------------------|
|------------------------------|-------------------------------------|
|------------------------------|-------------------------------------|
|-------0-0-------0-0-------0--|-------2-2-------2--1-1--------------|
|-------0-0-------0-0-------0--|-------2-2-------2--1-1--------------|
|--0-0--0-0--0-0--0-0--0-0--0--|--2-2--2-2--2-2--2--1-1--------------|
|                                                                    |
|------------------------------|-------------------------------------|
|------------------------------|-------------------------------------|
|------------------------------|-------------------------------------|
|-------0-0-------0-0-------0--|-------2-2-------2--9-9--------------|
|-------0-0-------0-0-------0--|-------2-2-------2--9-9--------------|
|--0-0--0-0--0-0--0-0--0-0--0--|--2-2--2-2--2-2--2--9-9--------------|

D
|-----|--------------|-----|-----------------------------------------|
|-----|--------------|-----|-----------------------------------------|
|-----|--------------|-----|-----------------------------------------|
|--2--|--5-----------|--2--|--7--7--10--2----------------------------|
|--2--|--5-----------|--2--|--7--7--10--2----------------------------|
|--2--|--5--5-5-7-2--|--2--|--7--7--10--2----------------------------|

E1 
|--------------------------------------------------------------------|
|--------------------------------------------------------------------|
|--------------------------------------------------------------------|
|-----------------------------2--------------------------------------|
|-----0h2-0-------------------2--------------------------------------|
|--0---------5--4--2--0h2--4--2--------------------------------------|
E2                                                                   |
|--------------------------------------------------------------------|
|--------------------------------------------------------------------|
|--------------------------------------------------------------------|
|-----------------------------2--------------------------------------|
|-----3h5-3--2h3p2-0----------2--------------------------------------|
|--0-----------------5--5-7-9-2--------------------------------------|

F
|------------------------|-------------------------------------------|
|------------------------|-------------------------------------------|
|------------------------|-------------------------------------------|
|------------------------|-10-------------------------x4-------------|
|-------5-----6-------5--|--8-------5h6p5-0--------------------------|
|--0-0-----0-----0-0-----|-----0-0-----------7h6p7-0-----------------|
|                                                                    |
|------------------------|-------------------------------------------|
|------------------------|-------------------------------------------|
|------------------------|-------------------------------------------|
|------------------------|----------------------------x4-------------|
|-------5-----6-------5--|--3-5--------------------------------------|
|--0-0-----0-----0-0-----|-------0-0--4-5~---------------------------|

G
|------------------------------|------------------------------|------|
|------------------------------|------------------------------|------|
|------------------------------|------------------------------|------|
|------------------------------|------------------------------|--3---|
|--0-0--0-0-0-0--0-0--0-0-0-0--|--0-0--0-0-0-0--0-0--0-0-0-0--|--3---|
|--0-0--0-0-0-0--0-0--0-0-0-0--|--0-0--0-0-0-0--0-0--0-0-0-0--|--3---|
|                                                                    |
|-----|------------------------------|-------------------------------|
|-----|------------------------------|-------------------------------|
|-----|------------------------------|-------------------------------|
|--1--|------------------------------|-------------------------------|
|--1--|--0-0--0-0-0-0--0-0--0-0-0-0--|--0-0--0-0-0-0--0-0--0-0-0-0---|
|--1--|--0-0--0-0-0-0--0-0--0-0-0-0--|--0-0--0-0-0-0--0-0--0-0-0-0---|
|                                                                    |
|-----|--------------------------------------------------------------|
|-----|--------------------------------------------------------------|
|-----|--------------------------------------------------------------|
|--5--|--------------------------------------------------------------|
|--5--|------------------3~------------------------------------------|
|--5--|--0-0--3--0-0--3----------------------------------------------|

H
|------------------------------|-------------------------------------|
|------------------------------|-------------------------------------|
|------------------------------|-------------------------------------|
|--------------------------x2--|--------------------------x2---------|
|--7-7-7-7--7--7-7-7-7--7------|--9-9-9-9--9--9-9-9-9--9-------------|
|--7-7-7-7--7--7-7-7-7--7------|--9-9-9-9--9--9-9-9-9--9-------------|
|                                                                    |
|-----------------------------|------------------------|-------------|
|-----------------------------|------------------------|-------------|
|-----------------------------|------------------------|-------------|
|--------------------------x2-|------------------------|-------------|
|--5-5-5-5--5--5-5-5-5--5-----|-7-7-7-7--7--7-7-7-7--7-|-5-4-0-3-2---|
|--5-5-5-5--5--5-5-5-5--5-----|-7-7-7-7--7--7-7-7-7--7-|-----------5-|
|                                                                    |
|------------------------------|-------------------------------------|
|------------------------------|-------------------------------------|
|------------------------------|-------------------------------------|
|--------------------------x2--|--------------------------x2---------|
|--7-7-7-7--7--7-7-7-7--7------|--5-5-5-5-----5-5-5-5----------------|
|--7-7-7-7--7--7-7-7-7--7------|--5-5-5-5--5--5-5-5-5--5-------------|
|                                                                    |
|-----------------------------|------------------------|-------------|
|-----------------------------|------------------------|-------------|
|-----------------------------|------------------------|-------------|
|--------------------------x2-|------------------------|-------------|
|-----------2-----------2-----|-7-7-7-7--7--7-7-7-7--7-|-7-7-7-7-7---|
|--5-5-5-5--5--5-5-5-5--5-----|-7-7-7-7--7--7-7-7-7--7-|-7-7-7-7-7-7~|

I1                   
|--------------------------------------------------------------------|
|--------------------------------------------------------------------|
|--------------------------------------------------------------------|
|--------------------------------------------------------------------|
|-------0-------1---------------0-----1------------------------------|
|--2-2-----2-2-----2-2--5--2-2-----2-----4--8-6p5p4--7-6p5p4---------|
|                                           T        T               |
|--------------------------------------------------------------------|
|--------------------------------------------------------------------|
|--------------------------------------------------------------------|
|--------------------------------------------------------------------|
|--------------------------------------------------------------------|
|--12-6p5p4--7-6p5p4--8-6p5p4--7-6p5p4--12-6p5p4--7-6p5p4------------|
|  T         T        T        T        T         T                  |
I2                                                                   |
|--------------------------------------------------------------------|
|--------------------------------------------------------------------|
|--------------------------------------------------------------------|
|----------------------x4--------------------------------------------|
|--------------------------------------------------------------------|
|--9-10-11-12-11-10-9------------------------------------------------|
           T
J (Solo)
|------------------------------------------|-------------------------|
|--------------------------------20p17-----|--20fb--17--20fb---------|
|----------------------19p17-----------19--|-------------------------|
|--------17--19p17-----------19------------|-------------------------|
|--17h19-----------19----------------------|-------------------------|
|------------------------------------------|-------------------------|
|                                                                    |
|--------------------------------------------------------------------|
|--20--17--20--20--20p17-----17--------------------------------------|
|------------------------19-----19-16~16~--17-16h17p16-14------------|
|----------------------------------------------------------16--------|
|--------------------------------------------------------------------|
|--------------------------------------------------------------------|
|                                                                    |
|-----------------------------------12-15-12-------------------------|
|--17-x--------------------------13----------13----------------------|
|-------x---------------------14----------------14-------------------|
|---------x-17--14---------14----------------------14----------------|
|-------------------12--15-------------------------------------------|
|--------------------------------------------------------------------|
|                                                                    |
|-----------------------|--12-15-15p12----12--17--17p12----12--------|
|--15--13--12h13p12\10--|--------------15---------------15-----------|
|-----------------------|--------------------------------------------|
|-----------------------|---------------------------------------x2---|
|-----------------------|--------------------------------------------|
|-----------------------|--------------------------------------------|
|                                                                    |
|-----12-15-12--------12-17-12--------12-17-12--------12-17-12-------|
|--13----------13--13----------13--13----------13--13----------13----|
|--------------------------------------------------------------------|
|--------------------------------------------------------------------|
|--------------------------------------------------------------------|
|--------------------------------------------------------------------|
|                                                                    |
|--------------------------------------------------------------------|
|--13--12h13p12--10--12-----13-12-10--12-10--------------------------|
|-----------------------12------------------12--10-------------------|
|--------------------------------------------------10----------------|
|-----------------------------------------------------10-------------|
|--------------------------------------------------------------------|
|                                                                    |
|--------------------------------------------------------------------|
|--------------------------------------------------------------------|
|--------------------------------------------------------------------|
|--5--7--9--10--12fb-------------------------------------------------|
|--------------------------------------------------------------------|
|--------------------------------------------------------------------|

K
|---------------|-----------------|----------|-----------------------|
|---------------|-----------------|----------|-----------------------|
|-----5-4-------|-------5-4----7--|--9-7-9~--|--9h10p9--7--9---------|
|--7-------5-7--|--5-7-------5----|----------|-----------------------|
|---------------|-----------------|----------|-----------------------|
|---------------|-----------------|----------|-----------------------|
|                                                                    |
|-----------|------|-------------------------------------------------|
|-----------|------|-------------------------------------------------|
|--7--5--4--|--5~--|-----5-4--------5-7------------------------------|
|-----------|------|--7-------5--7-------5--x2-----------------------|
|-----------|------|-------------------------------------------------|
|-----------|------|-------------------------------------------------|
*Vibrato with bar                                                       |
|-----------------------------------|--------------------------------|
|-----------------------8-----------|--------------------------------|
|--9--9h10p9-7-9-7-9-10----10-7-9~--|--7--5h7p5--4--5~5~5~5~*--------|
|-----------------------------------|--------------------------------|
|-----------------------------------|--------------------------------|
|-----------------------------------|--------------------------------|

L (Solo 2)
|--12--17p12-12--12-13-17-13-12--------------------------------------|
|--*------*--*---*--*--*--*--*---12--13-15-13------------------------|
|--------------------------------*---*--*--*-------------------------|
|--------------------------------------------------------------------|
|--------------------------------------------------------------------|
|--------------------------------------------------------------------|
|                                                                    |
|--------------------------------------------------------------------|
|--13h15p13-12-------------------------------------------------------|
|--*--------*--11--12-14--12h14p12-11--------------------------------|
|--------------*---*--*---*--------*---10--12--15--14----------------|
|--------------------------------------*---*---*---*-----------------|
|--------------------------------------------------------------------|
|                                                                    |
|--------------------------------------------------------------------|
|--------------------------------------------------------------------|
|--------------------------------------------------------------------|
|--/10--9--/12-12--10--/14-14--\12--13--x\--2------------------------|
|---------------------------------------x\--2------------------------|
|---------------------------------------x\--2------------------------|

M
|-----------------------------|--------------------------------------|
|-----------------------------|--------------------------------------|
|-----------------------------|--------------------------------------|
|--2--2--10-10-9--7--7--3--5--|--2--2--10-10-9--7--7--3-3-3--5-------|
|--2--2--10-10-9--7--7--3--5--|--2--2--10-10-9--7--7--3-3-3--5-------|
|--2--2--10-10-9--7--7--3--5--|--2--2--10-10-9--7--7--3-3-3--5-------|
                        .                             . . .
Добавлено: 21.05.2012
Другие материалы по этой песне:
  • Аккорды и текст

Страница создана 21.05.2012
http://primanota.ru/hollenthon/woe-to-the-defeated-chords.htm
Привет, Гость.
Предлагаем пройти революционный курс по гитаре.
Подарок от PrimaNota.Ru, забирай!