PrimaNota.ru - самый крупный в мире бесплатный архив песенных текстов, аккордов, табулатур и нот


Holiday Friends - Sugar High - таба, видео

Регистрация Запомнить меня
Войти через:  Facebook Google Twitter Vk Yandex Mail.ru

Holiday Friends - Sugar High - таба, видео

Печатать
Просмотров: 76
Уроки эстрадного вокала в Санкт-Петербурге
-------------------------------------------------------------------------------
                             Sugar High by Holiday Friends
-------------------------------------------------------------------------------
Tabbed by: Noah Spelman
E-mail:

Tuning: Standard

... = hold for an extra second
777,555,999 = down up down really fast (you'll know what I mean when you listen to the song)
 
\\\\\\\\\\\\\\\\\\\\\\\\\\\\\\\\INTRO////////////////////////////////////////

e|---------------------------------------------------------------------------|
B|---------------------------------------------------------------------------|
G|---------------------------------------------------------------------------|
D|---------------------------------------------------------------------------|
A|--7-777-9-7-----------7-777-9-7--------------------------------------------|
E|------------10-7-10-------------10-7-10----7-777-5-2...  7-777-5-2... -----|
 
Then it starts out the same but changes at the second (7-777-9-7)
e|---------------------------------------------------------------------------|
B|---------------------------------------------------------------------------|
G|---------------------------------------------------------------------------|
D|---------------------------------------------------------------------------|
A|--7-777-9-7----------7-777-9-12-9-7---------5-555---------5-555------------|
E|------------10-7-10------------------------------7-5...--------7-5...------|
 
CHORUS:
                     (but also the 2nd half of the intro)

Then the exact same thing, but starts on the 9th fret of the "G string"
e|---------------------------------------------------------------------------| \ 
B|---------------------------------------------------------------------------|  \
G|--9-999-11-9----------9-999-11-9----------9-999-7-4...--9-999-7-4...-------|   \   
D|-------------12-9-12-------------12-9-12-----------------------------------|    \  
A|---------------------------------------------------------------------------|     \
E|---------------------------------------------------------------------------|      \     
 Then it changes again                                                              /  !!!!!!CHORUS!!!!!!
e|---------------------------------------------------------------------------|     /
B|---------------------------------------------------------------------------|    /
G|---------------------------------------------------------------------------|   /
D|---------------------------------------------------------------------------|  /
A|--9-999-11-9---------9-999-11-14-11-9----7-777----------7-777--------------| /
E|-------------12-9-12---------------------------9-7...---------9-7...-------|/





VERSE:

4 CHORDS: D, Em, Bm, I don't know the name of the last but you bar the 7th fret, and make an (Am) shape so I'll
just call it Am7 for now. (sorry)

      Am7    D          Am7          D    __________________
She don't even, she don't even know I exist                 |
                                                            | 
(Now each chord is followed by 3 up strokes)                |
                                                            |
          Am7     D             Am7      D                  |
She's all in my head, She's all in my head                  |--THIS PART IS PLAYED AGAIN AFTER THE CHORUS
                                                            |
          Em           Bm              Em       D           |  
And I get so caught up in the way she says "Jesse"          |
                                                            |
      Em           Bm              Em       D               |
I get so caught up in the way she says my name              |
                                          __________________| 




*CHORUS*

*VERSE*

*CHORUS AGAIN* (repeat the chorus twice)


Добавлено: 22.12.2015
Другие материалы по этой песне:
  • Аккорды и текст

Страница создана 22.12.2015
http://primanota.ru/holiday-friends/sugar-high-chords.htm
Привет, Гость.
Предлагаем пройти революционный курс по гитаре.
Подарок от PrimaNota.Ru, забирай!